» » »

*Blink 182*, Wasting Time Tabs (ver.2)

Artists:  A B C D E F G H I J K L M N O P Q R S T U V W X Y Z # 

Wasting Time Tabs (ver.2)

*Blink 182* Tabs
 Rating:
4/5 (4 votes)
Wasting Time lessons Tabs too difficult? Try these video lessons and learn fast
1
                Intro:
 
E-------------------------------------------------------------------
B-------------------------------------------------------------------
G-------------------------------------------------------------------
D----------9-7-6------6-7H9-7-6-----6----7/6------------------
A-------7--------0-0------------4-4---4-----------7---9-7-6--
E--0-0----------------------------------------7-7---7---------
 x2
 
 !!!!!!!!OPTIONAL!!!!!!!!  By another guitar during solo above.If you aren't
 jamming with a friend, skip to riff below this one.
E--------------------------------------------------------------------
B--------------------------------------------------------------------
G---9-----------------------------------6---------------------------
D---9-----------------7-----------------6----------------9---------
A---7-----------------7-----------------4----------------9---------
E---------------------5----------------------------------7---------

 Then
E---------------------------------------------------------------------------
B---------------------------------------------------------------------------
G-------------------------------------6------------------4-----------------
D---x-7--------------2----------------6------------------4------------------
A---x-7--------------2----------------4------------------2------------------
E---x-5--------------0------------------------------------------------------
   x3
E-------------------------------------------------------------5---5---5---5---
B---------------------------------------------------------------5---5---5---5-
G-------------------------------------6---------4--------7-----------------
D---x-7--------------2----------------6---------4--------7------------------
A---x-7--------------2----------------4---------2--------5------------------
E---x-5--------------0------------------------------------------------------
 
 Then:
E---------------------------------------------------------------------------
B---------------------------------------------------------------------------
G---------------------------------------------------------------------------
D---------9-7-6------6-7H9-7-6-----6----7/6------------------------------
A-------7--------0-0-----------4-4---4-----------7---9-7-6-------------
E--0-0---------------------------------------7-7---7------------------
   x2
 
 Verse 1:
 
 E---------------------------------------------------------------------------
B---------------------------------------------------------------------------
G---9-----------------------------------6-----------------------------------
D---9-----------------7-----------------6----------------9------------------
A---7-----------------7-----------------4----------------9------------------
E---------------------5----------------------------------7-----------------
     x4
Chorus:

E---------------------------------------------------------------------------
B---------------------------------------------------------------------------
G-------------------------------------6------------------4-----------------
D---x-7--------------2----------------6------------------4------------------
A---x-7--------------2----------------4------------------2------------------
E---x-5--------------0------------------------------------------------------
  x3
 
 E-----------------------------------------------------5---5---5---5--------
B-------------------------------------------------------5---5---5---5------
G-----------------------------6---------4--------7------------------------
D---x-7------2----------------6---------4--------7------------------------
A---x-7------2----------------4---------2--------5------------------------
E---x-5------0-------------------------------------------------------------

E---------------------------------------------------------------------------
B---------------------------------------------------------------------------
G---------------------------------------------------------------------------
D---------9-7-6------6-7H9-7-6-----6----7/6--------------------------
A-------7-------0-0------------4-4---4-----------7---9-7-6----------
E--0-0---------------------------------------7-7---7-----------------
   x2

 Verse 2:
 
E--------------------------------------------------------------------------
B--------------------------------------------------------------------------
G---9-----------------------------------6---------------------------------
D---9-----------------7-----------------6----------------9---------------
A---7-----------------7-----------------4----------------9----------------
E---------------------5----------------------------------7----------------
    x4
 
 Chorus:
 
 E---------------------------------------------------------------------------
B---------------------------------------------------------------------------
G-------------------------------------6------------------4-----------------
D---x-7--------------2----------------6------------------4------------------
A---x-7--------------2----------------4------------------2------------------
E---x-5--------------0------------------------------------------------------
  x5
 
E-----------------------------------------------------5---5---5---5------------
B-------------------------------------------------------5---5---5---5---------
G------------------------------6---------4--------7-----------------
D---x-7-------2----------------6---------4--------7------------------
A---x-7-------2----------------4---------2--------5------------------
E---x-5-------0------------------------------------------------------
 
E---------------------------------------------------------------------
B---------------------------------------------------------------------------
G---------------------------------------------------------------------------
D----------9-7-6------6-7H9-7-6-----6----7/6------------------------------
A-------7--------0-0------------4-4---4-----------7---9-7-6-------------
E-0-0-----------------------------------------7-7---7------------------
   x4
            
Submit corrections

comments powered by Disqus
↑ Back to top | *Blink 182* Tabs for Wasting Time. Lyrics for acoustic guitar and electric guitar. 1 Tablatures and chords are parodies/interpretations of the original songs. You may use it for private study, scholarship, research or language learning purposes only