» » »

Waisting Time Tabs (ver.1)

Artists:  A B C D E F G H I J K L M N O P Q R S T U V W X Y Z # 

Waisting Time Tabs (ver.1)

*Blink 182*
Rating:
0/5 (0 votes)

Hard to play? Try these video lessons and learn fast.
                Blink 182

Fig. 1
----------------|----------------|------------------------|-------------|
----------------|----------------|------------------------|-------------|
----------------|----------------|------------------------|-------------|
--------9-7-6---|----6/7-7-9-7-6-|------------------------|-------------|
-7--7-7-------7-|--7-------------|-11---11-11---12-11-9-9-|-9-9---9--7--|
-0--0-0-------5-|--5-------------|--9----9----9---------7-|-7---7-------|

Fig. 2a
--------------|-------------|---------------|-------------|
--------------|-------------|---------------|-------------|
---2--2-2-2---|-------------|-6--6--6-6-6-4-|--4-4--4--4--|
---2--2-2-2-2-|--2-2--2--2--|-6--6--6-6-6-4-|--4-4--4--4--|
---0--0-0-0-2-|--2-2--2--2--|-4--4--4-4-4-2-|--2-2--2--2--|
------------0-|--0-0--0--0--|---------------|-------------|

Fig. 2b
--------------|-------------|-----------------|-----------------|
--------------|-------------|-----------------|-----------------|
---2--2-2-2---|-------------|-6-6-6-6-6-6-6-6-|-6-6-6-6-6-6-6-6-|
---2--2-2-2-2-|--2-2--2--2--|-----------------|-----------------|
---0--0-0-0-2-|--2-2--2--2--|-4-4-4-4-4-4-4-4-|-4-4-4-4-4-4-4-4-|
------------0-|--0-0--0--0--|-----------------|-----------------|

-----------------|-----------------|-----------------|---------------|
-----------------|-----------------|-----------------|---------------|
-4-4-4-4-4-4-4-4-|-4-4-4-4-4-4-4-4-|-2-2-2-2-2-2-2-2-|-2-2-2-2-2-2-2-|
-----------------|-----------------|-----------------|---------------|
-2-2-2-2-2-2-2-2-|-2-2-2-2-2-2-2-2-|-0-0-0-0-0-0-0-0-|-0-0-0-0-0-0-0-|
-----------------|-----------------|-----------------|---------------|

-5-----5----5-|-------5-----|
----5-----5---|--5-5-----5--|
--------------|-------------| end Fig. 2b
--------------|-------------|
--------------|-------------|
--------------|-------------|

Fig. 3a
----------------|----------------|----------------|----------------|
----------------|----------------|----------------|----------------|
----------------|-2--2-2-2-2-2-2-|-6--6-6-6-6-6-6-|-4--4-4-4-4-4-4-|
-2--2-2-2-2-2-2-|-2--2-2-2-2-2-2-|-6--6-6-6-6-6-6-|-4--4-4-4-4-4-4-|
-2--2-2-2-2-2-2-|-0--0-0-0-0-0-0-|-4--4-4-4-4-4-4-|-2--2-2-2-2-2-2-|
-0--0-0-0-0-0-0-|----------------|----------------|----------------|

Fig. 3b
----------------|----------------|----------------|----------------|
----------------|----------------|----------------|----------------|
----------------|-2--------------|-6--------------|-4--------------|
-2--------------|-2--2-2-2-2-2-2-|-6--6-6-6-6-6-6-|-4--4-4-4-4-4-4-|
-2--2-2-2-2-2-2-|-0--0-0-0-0-0-0-|-4--4-4-4-4-4-4-|-2--2-2-2-2-2-2-|
-0--0-0-0-0-0-0-|----------------|----------------|----------------|
   pm..........      ...........      ...........      ...........

Intro: Fig. 1, 2x		       Fig. 1, 2x
Fig. 2a, 3x, then Fig. 2b, 1x       Verse: Fig. 3b, 2x, then Fig. 3a, 2x
Fig. 1, 2x			    Chorus: Fig. 2a, 5x, then Fig. 2b, 1x
Verse: Fig. 3a, 4x		    Outro: Fig. 1, 4x
Chorus: Fig. 2a, 3x, then Fig. 2b, 1x	  hold out A5 (X 0 2 2 X X)
            
Hard to play? Try these video lessons and learn fast. | Correct




comments powered by Disqus
↑ Back to top | Tablatures and chords are parodies/interpretations of the original songs. You may use it for private study, scholarship, research or language learning purposes only