>
 >
Waggy 2

Waggy 2 Guitar Tabs

*Blink 182* - Waggy 2 chords, tabs, tablatures, lyrics

Guitar lessons | Add/correct | Request | Top 50 tabs Artists:  A B C D E F G H I J K L M N O P Q R S T U V W X Y Z 0-9

Waggy 2 Guitar Tabs – *Blink 182*

CD, Sheet music, Poster

Do you like Waggy 2? Share with your friends now
TabsTabs v2Tabs v3
Blink 182 - Waggy 


Intro: 
A---0--5-4---5-4---5-4---5-4------------------- 

Bridge: 
D---11-------14--12--11--12--14--7---12--14--7- 
A---11-x24---14--12--11--12--14--7~~~12--14--7- 
E---9--------12--10--9---10--12--5---10--12--5- 

Verse: 
A---0--5-4---5-4---0--5-4---5-4---------------- 

Verse 2: 
D---7--------11-------12----------------------- 
A---7-ring---11-x16---12-x16------------------- 
E---5--------9--------10----------------------- 

Chorus: 
D---4------12------9-----(7----)--------------- 
A---4-x8---12-x8---9-x16-(7-x16)--------------- 
E---2------10------7-----(5----)--------------- 
Play 7 9 9 the 1st & 3rd times of the chorus, and 
the 5 7 7 the 2nd. 

Solo: 
A---0---5---4---------------------------------- 
It's pretty fast.  Just mess around with the 3 
notes above. 





Comments


Popular *Blink 182* tabs & chords
Down 2 Bass Tabs
Feelin This 1 Bass Tabs
Adams Song 4 Chords
Dammit 1 Chords
Anthem Part Two 12 Tabs
Dammit Complete Tabs
Easy Target 2 Tabs
Fighting The Gravity Tabs
The Happy Song Tabs
Violence Tabs


Song lyrics



↑ Back to top | Tablatures and chords are parodies/interpretations of the original songs. You may use it for private study, scholarship, research or language learning purposes only
© 2014 AZChords.com Contact us | Privacy policy | DMCA | Add/correct tabs | Request tabs | Top 50 tabs