>
 >
Waggy 1

Waggy 1 Guitar Tabs

*Blink 182* - Waggy 1 chords, tabs, tablatures, lyrics

Guitar lessons | Add/correct | Request | Top 50 tabs Artists:  A B C D E F G H I J K L M N O P Q R S T U V W X Y Z 0-9

Waggy 1 Guitar Tabs – *Blink 182*

CD, Sheet music, Poster

Do you like Waggy 1? Share with your friends now
TabsTabs v2Tabs v3
INTRO:
e|---------------------------------------------------------------------------|
B|---3-2----3-2----3-2----3-2------------------------------------------------|
G|---2-2----2-2----2-2----2-2------------------------------------------------|
D|---------------------------------------------------------------------------|
A|-0------0------0------0----------------------------------------------------|
E|---------------------------------------------------------------------------|

Riff 1:
e|---------------------------------------------------------------------------|
B|-22222222--5--3--2--3--5------------3--5-----------------------------------|
G|--------------------------22222222--------22222222-------------------------|
D|---------------------------------------------------------------------------|
A|------------------(for exact number of picking listen to the song)---------|
E|---------------------------------------------------------------------------|


VERSE 1:
(Do Intro)

2nd part of Verse 1:
e|---------------------------------------------------------------------------|
B|---------------------------------------------------------------------------|
G|-2-------------------------------7-7-7-7-7-7-7-7---------------------------|
D|-2-(let ring)--4-4-4-4-4-4-4-4---7-7-7-7-7-7-7-7---------------------------|
A|-0-------------4-4-4-4-4-4-4-4---5-5-5-5-5-5-5-5---------------------------|
E|---------------2-2-2-2-2-2-2-2---------------------------------------------|


CHORUS:

"I think you need some time alone..."
e|---------------------------------------------------------------------------|
B|---------------------------------------------------------------------------|
G|----------7-7-7-7--4-4-4-4-4-4-4-4-----------------------------------------|
D|-4-4-4-4--7-7-7-7--4-4-4-4-4-4-4-4-----------------------------------------|
A|-4-4-4-4--5-5-5-5--2-2-2-2-2-2-2-2-----------------------------------------|
E|-2-2-2-2-------------------------------------------------------------------|

"You said you want someone to call your own.."
e|---------------------------------------------------------------------------|
B|---------------------------------------------------------------------------|
G|----------7-7-7-7--2-2-2-2-2-2-2-2-----------------------------------------|
D|-4-4-4-4--7-7-7-7--2-2-2-2-2-2-2-2-----------------------------------------|
A|-4-4-4-4--5-5-5-5--0-0-0-0-0-0-0-0-----------------------------------------|
E|-2-2-2-2-------------------------------------------------------------------|

"Open your eyes, you can suck in your pride.."
e|---------------------------------------------------------------------------|
B|---------------------------------------------------------------------------|
G|----------7-7-7-7--4-4-4-4-4-4-4-4-----------------------------------------|
D|-4-4-4-4--7-7-7-7--4-4-4-4-4-4-4-4-----------------------------------------|
A|-4-4-4-4--5-5-5-5--2-2-2-2-2-2-2-2-----------------------------------------|
E|-2-2-2-2-------------------------------------------------------------------|

(Then do F#5, then D5, and then back to Riff 1)


VERSE 2: Exactly the same as Verse 1, part 1 and 2.

Then CHORUS

At the end of it, let ring A5....

Bass for a bit....


INTERLUDE:

e|-(P.M)---------------------------------------------------------------------|
B|---------------------------------------------------------------------------|
G|--2-2----------------------------------------------------------------------|
D|--2-2-(2x)-----------------------------------------------------------------|
A|--0-0------0-0-4-0-0-5-0-4-0-5-0-4-0-5--(8x)-------------------------------|
E|---------------------------------------------------------------------------|

There's probably more open A's in there, so just improvise, and you have to pick it real fast.

Then Riff 1
Then INTRO

Then A5, F#ii, end on A5.

Blink-182 rock, and those who think they're just cheap sell-outs, FUCK YOU!!





Comments


Popular *Blink 182* tabs & chords
All The Small Things 5 Bass Tabs
T.V. 2 Bass Tabs
After Midnight 5 Tabs
Apple Shampoo Tabs
Dogs Eating Dogs Tabs
Dumpweed 6 Tabs
F**K A Dog Tabs
First Day Tabs
Go Easy Version Tabs
Stockholme Syndrome Tabs


Song lyrics



↑ Back to top | Tablatures and chords are parodies/interpretations of the original songs. You may use it for private study, scholarship, research or language learning purposes only
© 2014 AZChords.com Contact us | Privacy policy | DMCA | Add/correct tabs | Request tabs | Top 50 tabs