» » »

Violence Tabs (ver.4)

Artists:  A B C D E F G H I J K L M N O P Q R S T U V W X Y Z # 

Violence Tabs (ver.4)

*Blink 182*
Rating:
0/5 (0 votes)

Hard to play? Try these video lessons and learn fast.
                (100)
GUITAR 1

E|------------------------------------------------------|
B|------------------------------------------------------|
G|------------------------------------------------------| 
D|------------------------------------------------------|
A|------------------------------------------------------|
E|-----7B--7B--7B--7B--7B--7B--7B--7B--7B--7B--7B--7B---|

GUITAR 2

E|---------------|
B|---------------|
G|--4-4-4-4-4-4--|
D|--4-4-4-4-4-4--|
A|--2-2-2-2-2-2--|
E|---------------|

GUITAR 1

E|----------------------------------------------------------------------|
B|----------------------------------------------------------------------|
G|--4-4-4-4-4-4-4-4--6-6-6-6-6-6-6-6------------------------------------| 2X
D|--X-X-X-X-X-X-X-X--X-X-X-X-X-X-X-X--6-6-6-6-6-6-6-6--8-8-8-8-8-8-8-8--|
A|--2-2-2-2-2-2-2-2--4-4-4-4-4-4-4-4--X-X-X-X-X-X-X-X--X-X-X-X-X-X-X-X--|
E|------------------------------------4-4-4-4-4-4-4-4--6-6-6-6-6-6-6-6--|

BASS PART.


E|----------------------------------------------------------------------|
B|----------------------------------------------------------------------|
G|--4-4-4-4-4-4-4-4--6-6-6-6-6-6-6-6------------------------------------| 2X
D|--X-X-X-X-X-X-X-X--X-X-X-X-X-X-X-X--6-6-6-6-6-6-6-6--8-8-8-8-8-8-8-8--|
A|--2-2-2-2-2-2-2-2--4-4-4-4-4-4-4-4--X-X-X-X-X-X-X-X--X-X-X-X-X-X-X-X--|
E|------------------------------------4-4-4-4-4-4-4-4--6-6-6-6-6-6-6-6--|

BASS PART.

E|----------------------------------------------------------------------|
B|----------------------------------------------------------------------|
G|--4-4-4-4-4-4-4-4--6-6-6-6-6-6-6-6------------------------------------| 2X
D|--X-X-X-X-X-X-X-X--X-X-X-X-X-X-X-X--6-6-6-6-6-6-6-6--8-8-8-8-8-8-8-8--|
A|--2-2-2-2-2-2-2-2--4-4-4-4-4-4-4-4--X-X-X-X-X-X-X-X--X-X-X-X-X-X-X-X--|
E|------------------------------------4-4-4-4-4-4-4-4--6-6-6-6-6-6-6-6--|

BASS PART.

E|----------------------------------------------------------------------|
B|----------------------------------------------------------------------|
G|--4-4-4-4-4-4-4-4--6-6-6-6-6-6-6-6------------------------------------| 4X
D|--X-X-X-X-X-X-X-X--X-X-X-X-X-X-X-X--6-6-6-6-6-6-6-6--8-8-8-8-8-8-8-8--|
A|--2-2-2-2-2-2-2-2--4-4-4-4-4-4-4-4--X-X-X-X-X-X-X-X--X-X-X-X-X-X-X-X--|
E|------------------------------------4-4-4-4-4-4-4-4--6-6-6-6-6-6-6-6--|

E|------------------------------------------------------|
B|------------------------------------------------------|
G|------------------------------------------------------| 
D|------------------------------------------------------|
A|------------------------------------------------------|
E|-----7B--7B--7B--7B--7B--7B--7B--7B--7B--7B--7B--7B---|
            
Hard to play? Try these video lessons and learn fast. | Correct




comments powered by Disqus
↑ Back to top | Tablatures and chords are parodies/interpretations of the original songs. You may use it for private study, scholarship, research or language learning purposes only