» » »

*Blink 182*, Violence Tabs (ver.1)

Artists:  A B C D E F G H I J K L M N O P Q R S T U V W X Y Z # 

Violence Tabs (ver.1)

*Blink 182* Tabs
Rating:
0/5 (0 votes)
Violence lessons Tabs too difficult? Try these video lessons and learn fast
                
                                Violence
                              by Blink 182

^=Pull
*=Let Pull Down
/=Slide 
x=Mute
X=How Many Times You Play Something
                           Intro
1------------------------------------------------------
2------------------------------------------------------
3------------------------------------5-5-5-5-5---------
4------------------------------------x-x-x-x-x---------
5---3^*^*^*-3^*^*^*-3^*^*^*-3^*^*^*--3-3-3-3-3---------  X3
6------------------------------------------------------
Verse (On Bass)
1---------------------------------------------------------------------------
2---------------------------------------------------------------------------
3---3333333333333333-555555555555555-----------------7777777777777777-------
4------------------------------------555555555555555------------------------


                           Chorus
1----------------------------------------------------------
2----------------------------------------------------------
3----------------------------------------------------------
4---5-5-5-5-----7-7-7-7------------------------------------
5---3-3-3-3-X4--5-5-5-5-X4--7-7-7-7-----9-9-9-9------------
6---------------------------5-5-5-5-X4--7-7-7-7-X4--------- X2

                              End
1------------------------------------------------------------------
2------------------------------------------------------------------
3------------------------------------------------------------------
4------------------------------------------------------------------
5-------3-----3--------5-----5--------3-----3--------3----3--------
6---5-5---5-5---5--3-3---3-3---3--5-5---5-5---5--3-3---3-3--3------ CONT.

1-------------------------------------------------------------------
2-------------------------------------------------------------------
3--------------------------------7----------------------------------
4--------------------------------7----------------------------------
5-------7-----7--------5-----5---9----------------------------------
6---5-5---5-5---5--3-3---3-3---3------------------------------------  X8

Intro
Chorus
Verse
Chorus
Verse
Chorus
End
Intro

Intro
            

comments powered by Disqus
↑ Back to top | *Blink 182* Tabs for Violence. Lyrics for acoustic guitar and electric guitar. Tablatures and chords are parodies/interpretations of the original songs. You may use it for private study, scholarship, research or language learning purposes only