>
 >
Untitled 1

Untitled 1 Guitar Tabs

*Blink 182* - Untitled 1 chords, tabs, tablatures, lyrics

Guitar lessons | Add/correct | Request | Top 50 tabs Artists:  A B C D E F G H I J K L M N O P Q R S T U V W X Y Z 0-9

Untitled 1 Guitar Tabs – *Blink 182*

CD, Sheet music, Poster

Do you like Untitled 1? Share with your friends now
TabsTabs v2Tabs v3
Artist - Blink - 182
Song - Untitled
Album(s) - Dude Ranch/The Mark Tom & Travis Show

 **NOTE**
Make sure you listen to the song and know the beat and everything 
pretty well, if you don't, you might be screwed.

Main Riff

e|----------------------------------------------| \
B|----------------------------------------------|  \
G|--4-4-4-4-4--4-4-4-4-4------------------------|   \____X 5
D|--4-4-4-4-4--4-4-4-4-4--2-2-2-2-2--4-4-4-4-4--|   /
A|--2-2-2-2-2--2-2-2-2-2--2-2-2-2-2--4-4-4-4-4--|  /
E|------------------------0-0-0-0-0--2-2-2-2-2--| /

Repeat this untill Tom sings the end of “I am so sick of chasing you”

e|-----------------------------------------------|
B|-----------------------------------------------|
G|--4-----------8/9--------------------9/8/4-----|
D|--4-----------8/9--------------------9/8/4-----|
A|--2-----------6/7--------------------7/6/2-----|
E|-----------------------------------------------|
   “But what do I get cause I just seem to lose”

e|-------------------------------------------------|
B|-------------------------------------------------|
G|-----4/6/3-----------------------------3/4/4-----|
D|-----4/6/3-----------------------------3/4/4-----|
A|-----2/4/1-----------------------------1/2/2-----|
E|-------------------------------------------------|
  “You make me regret the time I spent with you”

e|---------------------------------------------------|
B|---------------------------------------------------|
G|--4--------------8/9-----------------------9/8/4---|
D|--4--------------8/9-----------------------9/8/4---|
A|--2--------------6/7-----------------------7/6/2---|
E|---------------------------------------------------|
   “And playing those games as I want for your call”

e|--------------------------------------------|
B|--------------------------------------------|
G|-----4/6/3-----------------3-----------9----|
D|-----4/6/3-----------------3-----------9----|
A|-----2/4/1-----------------1-----------7----|
E|--------------------------------------------|
  “And now I give up so good-bye and so long”

e|-----------------------------------------|\
B|-----------------------------------------| \
G|-----4--------9--8-----------------------|  \____X2
D|-----4--2--4--9--8-----------------------|  /
A|-----2--2--4--7--6-----------------------| /
E|--------0--2-----------------------------|/

Double Time Feel

e|-------------------------------------------------------|
B|-------------------------------------------------------|
G|--4----------------------------------------------------|
D|--4---------------------------2------------4-----------|
A|--2---------------------------2------------4-----------|
E|------------------------------0------------2-----------|
  “It’s not a change in pace, this time i’ll get it right”

e|-----------------------------------------------------------|
B|-----------------------------------------------------------|
G|--4--------------------------------------------------------|
D|--4-------------------------2---------------4--------------|
A|--2-------------------------2---------------4--------------|
E|----------------------------0---------------2--------------|
  “It’s not a change in taste, I was the one there last night”

e |---------------------------------------------------------|
B|----------------------------------------------------------|
G|--4-------------------------------------------------------|
D|--4----------------------------2---------------4----------|
A|--2----------------------------2---------------4----------|
E|-------------------------------0---------------2----------|
  “You have your other friends, They were there when you cried"  
                                                         
                                                         (Start Early)
                                                                  \/
e|------------------------------------------------------------------|
B|------------------------------------------------------------------|
G|--4------------------------------------------------------------(4)|
D|--4----------------------------2---------------4---------------(4)|
A|--2----------------------------2---------------4---------------(2)|
E|-------------------------------0---------------2------------------|
 “Didn’t mean to hurt you then, best friends just wont leave your side"

e|---------------------------------------------|
B|---------------------------------------------|
G|--4-----------8/9--------------------9/8/4---|
D|--4-----------8/9--------------------9/8/4---|
A|--2-----------6/7--------------------7/6/2---|
E|---------------------------------------------|
  “But what do I get cause I just seem to lose”

e|-----------------------------------------------|
B|-----------------------------------------------|
G|-----4/6/3-----------------------------3/4/4---|
D|-----4/6/3-----------------------------3/4/4---|
A|-----2/4/1-----------------------------1/2/2---|
E|-----------------------------------------------|
  “You make me regret the time I spent with you”

e|-------------------------------------------------|
B|-------------------------------------------------|
G|--4--------------8/9-----------------------9/8/4-|
D|--4--------------8/9-----------------------9/8/4-|
A|--2--------------6/7-----------------------7/6/2-|
E|-------------------------------------------------|
  “And playing those games as I want for your call”

e|--------------------------------------------|
B|--------------------------------------------|
G|-----4/6/3-----------------3-----------9----|
D|-----4/6/3-----------------3-----------9----|
A|-----2/4/1-----------------1-----------7----|
E|--------------------------------------------|
  “And now I give up so good-bye and so long”

Bridge: 
e|----------------------| \                                                                                     
B|----------------------|  \                                                                                       
G|----------------------|   \_____X8							
D|-----2--4----4--2-----|   /							
A|--2---------------5---|  /						              
E|----------------------| / 

Repeat Part for:
It's not a change of pace 					                                       
This time I'll get it right 						                               
It's not a change of taste 						                                 
I was the one there last night!

Then play this fast with miner distortion:

e|-------------------------------------------------|
B|-------------------------------------------------|
G|--4-----------8/9------------------------9/8/4---|
D|--4-----------8/9------------------------9/8/4---|
A|--2-----------6/7------------------------7/6/2---|
E|-------------------------------------------------|
  “When I needed you most when I needed a friend”

e |-----------------------------------------------|
B|------------------------------------------------|
G|-----4/6/3------------------------------3/4/4---|
D|-----4/6/3------------------------------3/4/4---|
A|-----2/4/1------------------------------1/2/2---|
E|------------------------------------------------|
  “You let me down now like I let you down then”

e|----------------------\
B|---------------------- \
G|--4--------------8/9--  \______X4
D|--4--------------8/9--  /
A|--2--------------6/7-- /
E|----------------------/
   “So sorry, It’s over”

e|----------------|
B|----------------|          
G|-----4----------|    
D|-----4----------|    <-----End On 
A|-----2----------|
E|----------------|
  
 It took me a while to write this and it is fairly accurate,
 if not 100%, if you have any comments at all or questions feel





Comments


Popular *Blink 182* tabs & chords
Anthem Chords
Degenerate Chords
Fentoozler 1 Chords
Voyeur Chords
Cacophony 1 Drum Tabs
Always 1 Tabs
Dammit 1 Tabs
Josie Complete Tabs
Roller Coaster 1 Tabs
The Party Song 2 Tabs


Song lyrics



↑ Back to top | Tablatures and chords are parodies/interpretations of the original songs. You may use it for private study, scholarship, research or language learning purposes only
© 2014 AZChords.com Contact us | Privacy policy | DMCA | Add/correct tabs | Request tabs | Top 50 tabs