» » »

Transvestite Tabs (ver.1)

Artists:  A B C D E F G H I J K L M N O P Q R S T U V W X Y Z # 

Transvestite Tabs (ver.1)

*Blink 182*
Rating:
0/5 (0 votes)

Hard to play? Try these video lessons and learn fast.
                


Bass intro arranged for guitar 
e-------------------------------
b-------------------------------
g-------------------------------
d-------2---3-2-----------------
a--2-3---3-----2/3-0--3---------
e-------------------------------
 
Guitar 
    P.M....................................................................
e--------------------------------------------------------------------------
b--------------------------------------------------------------------------
g--555555555555555--------------------222222222222222----------------------
d--555555555555555---555555555555555--222222222222222--333333333333333-----
a--333333333333333---555555555555555--000000000000000--333333333333333-----
e--------------------333333333333333-------------------111111111111111-----
My mom, shes not a woman anymore    she dresses like, dresses like dresses like a man (dresses like a man)Oh how shes not a feminine as she used to be before oh how shes so *** masculne and I..
 
e---------------------------------------------------
b---------------------------------------------------
g--5-5-5555------------2-2-2222---------------------
d--5-5-5555--5-5-5555--2-2-2222--3-3-3333-----------
a--3-3-3333--5-5-5555--0-0-0000--3-3-3333-----------
e-----------3-3-3333-------------1-1-1111-----------
I close my eyes (I close my eyes) my moms not a woman anymore
She's wearing a disguise, every time she leans through that dooooooooooooooorrrr
UHHHHHH AHHHHHHH UHHHHHH OHHHHHH
 
Bass arranged for guitar
e---------------------------------------------------------------------------
b---------------------------------------------------------------------------
g---------------------------------------------------------------------------
d-----2---3-2-0--------3---3-2-0-------0---3-2-0--------2---3---------------
a--3---3-------3----3---3----------3--3---3---------3---3---3----3-2/3-0----
e---------------------------------------------------------------------------
 
Guitar
    P.M.....................................................................
e---------------------------------------------------------------------------
b---------------------------------------------------------------------------
g--555555555555555--------------------222222222222222-----------------------
d--555555555555555---555555555555555--222222222222222--333333333333333------
a--333333333333333---555555555555555--000000000000000--333333333333333------
e--------------------333333333333333-------------------111111111111111------
My moms not the same as she was in the past
If I miss behave she kicks my ass.
My mom's not quite the woman that she was before
When my friends come over she likes to wrestle them down to the floor and I....

e---------------------------------------------------
b---------------------------------------------------
g--5-5-5555------------2-2-2222---------------------
d--5-5-5555--5-5-5555--2-2-2222--3-3-3333-----------
a--3-3-3333--5-5-5555--0-0-0000--3-3-3333-----------
e------------3-3-3333------------1-1-1111-----------
I close my eyes (I close my eyes) my moms not a woman anymore
She's wearing a disguise, every time she leans through that dooooooooooooooorrrr
UHHHHHH AHHHHHHH UHHHHHH OHHHHHH

play 2 times
e-------------------------------------------------
b-------------------------------------------------
g-------------------------------------------------
d-------------------------------------------------
a--5-5-555----------------------------------------
e-----------5-5-555--7-7-777--1-1-1-1/3------------
My mom's a, my mom's a, my mom's a transvestite
My mom's a, my mom's a, my mom's a transvestie-yi-ei-te
 
e------------------------------------------------------------------------------------b------------------------------------------------------------------------------------
g---------5-5-5555-555555-------------------2-2-2222-222222--------------------5-5-55
d--333-3--5-5-5555-555555--5-5-5555-555555--2-2-2222-222222--333333333333333---5-5-55
a--333-3--3-3-3333-333333--5-5-5555-555555--0-0-0000-000000--333333333333333---3-3-55
e--111-1-------------------3-3-3333-333333-------------------111111111111111---------
 
Hoo Hoo Hoo Hoo Hooooo Hoo Hoo Hoo Hoo Hooo..........
 
End on
 
(acoustic)
e----------
b----------
g---5------
d---5------
a---3------
e----------
            
Hard to play? Try these video lessons and learn fast. | Correct




comments powered by Disqus
↑ Back to top | Tablatures and chords are parodies/interpretations of the original songs. You may use it for private study, scholarship, research or language learning purposes only