» » »

Time To Break Up Bass tabs (ver.1)

Artists:  A B C D E F G H I J K L M N O P Q R S T U V W X Y Z # 

Time To Break Up Bass tabs (ver.1)

*Blink 182*
Rating:
0/5 (0 votes)

Hard to play? Try these video lessons and learn fast.
                (2)
Intro 1
G-----------------
D-----------------
A-----------------
E-4-4-3-3-1-1-4-4-
Intro 2
G----------------------------------|------
D----------------------------------|------
A-4—-4-4-4-4------------6--6-6-6-6-|-4--6-
E------------4--4-4-4-4------------|------
Verse
G-------------------------------------------------
D-------------------------------------------------
A-4-4-4-4-4-4-4-6-6-6-6-6-6-6-6-------------------
E-------------------------------4-4-4-4-4-4-4-4-4-
Pre-Chorus
G--------
D--------
A--------
E-4-4--4-
Chorus
G-------------------------------------------------
D-------------------------------------------------
A-----------------6-6-6-6-6-6-6-6-4-4-4-4-4-4-4-4-
E-4-4-4-4-4-4-4-4---------------------------------
Bridge
G----------------------------------------------------------------------
D----------------------------------------------------------------------
A-------------------------------------4-4-4-4-4-4-4-4------------------
E-6-6-6-6-6-6-6-6-6-2-2-2-2-2-2-2-2-2-----------------4-4-4-4-4-4-4-4-4

G-------------------------------
D-------------------------------
A-4-4---------4—4---------------
E-------4—4---------4—4--4-4—-4-
            
Hard to play? Try these video lessons and learn fast. | Correct




comments powered by Disqus
↑ Back to top | Tablatures and chords are parodies/interpretations of the original songs. You may use it for private study, scholarship, research or language learning purposes only