>
 >
Take Your Pants Off

Take Your Pants Off Guitar Tabs

*Blink 182* - Take Your Pants Off chords, tabs, tablatures, lyrics

Guitar lessons | Add/correct | Request | Top 50 tabs Artists:  A B C D E F G H I J K L M N O P Q R S T U V W X Y Z 0-9

Take Your Pants Off Guitar Tabs – *Blink 182*

CD, Sheet music, Poster

Do you like Take Your Pants Off? Share with your friends now
Tabs
=       *****  *     * *     * *    *          *   *******  *******       =
=       *    * *     * **    * *   *           *   *     *        *       =
=       *    * *     * * *   * *  *            *   *     *        *       =
=       *****  *     * *  *  * * *             *   *******  *******       =
=       *    * *     * *   * * *  *            *   *     *  *             =
=       *    * *     * *    ** *   *           *   *     *  *             =
=       *****  ***** * *     * *    *          *   *******  *******       =
I was bored of all the tabs that everyone else published but,most songs are 
wrong and i corected most of them. I know most of them because i took my  
guitar to all the blink 182 concerts. Well I hope you enjoy all my tabs and
my effort into it..........................................................
=                     TAKE OFF YOUR PANTS AND JACKET                      =

1.ANTHEM PART 2
Intro Part 1
e--3---3---1---1---0---0---1---1-------
B----1---1---1---1---1---1---1---1-----
G--------------------------------------
D--------------------------------------
A--------------------------------------
E--------------------------------------
back up intro
e---------------------------------
B---------------------------------
G---------------------------------    
D----2/3-2--3x-------------0--2x--  4 times
A-3-3-------------------3-3-------
E---------------------------------

Pre-Chorus
e---------------------------------
B---------------------------------
G-9-10-9----------9-10------------
D-9-10-9-10-12-3x-9-10-10---------
A-7--8-7-10-12----7--8-10---------
E---------8-10----------8---------
verse
e---------------------------------
B---------------------------------
G--5------------------------------
D--5-12x-7----3-------------------
A--3-----7-6x-3-6x----------------
E--------5----1-------------------
bass back up(if you don't have a bass player play this)
e---------------------------------
B---------------------------------
G---------------------------------
D---------------------------------
A---7---5---3---------------------
E-5---3---1-----------------------
verse
e---------------------------------
B---------------------------------
G--5------------------------------
D--5-12x-7----3-------------------
A--3-----7-6x-3-6x----------------
E--------5----1-------------------
bass back up
e---------------------------------
B---------------------------------
G---------------------------------
D---------------------------------
A---7---5---3---------------------
E-5---3---1-----------------------
Chorus Part 1 
e----------------------------------
B----------------------------------
G--9-----10------------------------
D-10-10x-10-10x-10-----5-----------
A--7------8-----10-10x-5-10x-------
E----------------8-----3-----------
you need a bass player and a backup guitarist to finish because they all play it.
in the blink 182 concerts they never play that song they only use special efects and 
put the intro on repeat.
2.ONLINE SONGS
Main Riff
e----------------------------+-----------------------
B----------------------------+-----------------------
G----------------------------+--------------7-7-7-7--
D--------2-------------------+--------2-----7-7-7-7--
A--0-4-0---4-0-5-0-5-0-5-(x3)+--0-4-0---4---5-5-5-5--
E----------------------------+-----------------------

Chorus 
e------------------------------------------
B------------------------------------------
G--7-7-7777------------9-9-9999--7-7-7777--
D--7-7-7777--7-7-7777--9-9-9999--7-7-7777--
A--5-5-5555--7-7-7777--7-7-7777--5-5-5555--
E------------5-5-5555----------------------

Bridge
e----------------------------------------------
B----------------------------------------------
G-----------7-7-7-7-----------9-9-9-9-9-9-9-9--
D--4-4-4-4--7-7-7-7--7-7-7-7--9-9-9-9-9-9-9-9--
A--4-4-4-4--5-5-5-5--7-7-7-7--7-7-7-7-7-7-7-7-- 4 times
E--2-2-2-2-----------5-5-5-5-------------------

3.FIRST DATE
Intro/Outro
e--0-------------------------------------------
B----1---1---3--1---1---3--1---1---3--1---0----
G------0---0------0---0------0---0------0---0--
D----------------------------------------------
A----------------------------------------------
E----------------------------------------------

Verse 
e---------
B---------
G--5-5-5--
D--5-5-5--
A--3-3-3--
E---------

Chorus 
e--------------------------
B--------------------------
G--5555-4444---------------
D--5555-5555-7-7-7-7-33-5--
A--3333-2222-7-7-5-7-33-5-- 4 times
E------------5-5-5-5-11-3--

Bridge 
e---------------------------------
B---------------------------------
G--55555555-----------------------
D--55555555-222222-333333-555555--
A--33333333-222222-333333-555555-- 2 times
E-----------000000-111111-333333--

Solo 
e---------------------------------------
B---------------------------------------
G--5555555-999-555-101010-555-77777777--
D--xxxxxxx-xxx-xxx--x-x-x-xxx-xxxxxxxx--
A--3333333-777-333--8-8-8-333-55555555-- 4 times
E---------------------------------------

4.HAPPY HOLIDAYS YOU BASTARD
Verse 
e--------------------
B--------------------
G--44444444----------
D--44444444--444444--
A--22222222--444444-- 2 times
E------------222222--

Pre-Chorus 
e------------
B------------
G------------
D--666--222--
A--666--222--
E--444--000--


Chorus 
e------------------------
B------------------------
G--4444------------------
D--4444--4444--22222222--
A--2222--4444--22222222-- 4 times
E--------2222--00000000--

5.STORY OF A LONELY GUY
Intro 
e-----555-777777----555-7-5555---
B--555-----------555-------------
G--------------------------------
D--------------------------------
A--------------------------------
E--------------------------------

Verse
e----------------------------------------------
B----------------------------------------------
G-------------4444444444-6666666666-7777777777-
D--7777777777-4444444444-6666666666-7777777777- 4 times
A--7777777777-2222222222-4444444444-5555555555-
E--5555555555----------------------------------

Pre-Chorus 
e--------------------------------------------------
B--------------------------------------------------
G--------------------------------------------------
D-----7-----7-----7-----7-----7-----7-----7-----7-- 2 times
A--44---44-----55----55----00----00----77----77----
E--------------------------------------------------

Chorus 
e--------------------------------------
B--------------------------------------
G-----------99999999----------77777777-
D--77777777-99999999-44444444-77777777- 4 times
A--77777777-77777777-44444444-55555555-
E--55555555----------22222222----------

Solo Part 1 
e---------------------------------------
B---------------------------------------
G--------------------------999999999999-
D-----7-----7-----7-----7--999999999999- 2 times
A--44----44----55----55----777777777777-
E---------------------------------------

Solo Part 2
e-------------------------------------------------
B-------------------------------------------------
G-------------------------------------------------
D-----7-----7-----7-----7-----7-----7-----7-----7-
A--44----44----55----55----77----77---------------
E--------------------------------------55----44---

Solo Part 3
e----------------------------------------------
B----------------------------------------------
G----------------------------------------------
D-----7-----7----7----7----7-----7-----7-----7-
A--44----44------------------------------------
E--------------77---77--55----55----55----55---

6.THE ROCK SHOW
Intro/Outro
e-------------------------------------------
B-------------------------------------------
G-------------------------------------------
D-------2--0-----------------2--0--2p0------
A--0000------4p0-4p0----0000-----------4p0--
E-------------------------------------------

Verse 1 & 3
e--------------------------------------
B--------------------------------------
G-------------------7xxxxxxx-9xxxxxxx--
D--7xxxxxxxxxxxxxxx-7xxxxxxx-9xxxxxxx--
A--7xxxxxxxxxxxxxxx-5xxxxxxx-7xxxxxxx--
E--5xxxxxxxxxxxxxxx--------------------

Chorus 
e---------------------------------------------------
B---------------------------------------------------
G--------------7-7-------99999999-77777777------7-7-
D---------4-4--7-7--3x---99999999-77777777-3x---7-7-
A--7-7-7--4-4--5-5-------77777777-55555555------5-5-
E--5-5-5--2-2---------------------------------------

Solo    
e----------------------------------
B--2---2---3---2------------2---3--
G----2---2---2---2--3x--------2----
D----------------------------------
A----------------------------------
E----------------------------------

Post-Solo Bridge
e------------------------------------------
B------------------------------------------
G------------77777777------------9-9--7-7--
D--44444444--77777777--77777777--9-9--7-7--
A--44444444--55555555--77777777--7-7--5-5--
E--22222222------------55555555------------

7.STAY TOGETHER FOR THE KIDS
Intro
e-----------------------------------------
B-----------------------------------------
G-----------------------------------------
D----0---7---0--4--0---0---7---0--4--0----
A--5---5---5---------4---4---4------------
E-----------------------------------------

e-----------------------------------------
B-----------------------------------------
G-----------------------------------------
D----0---4---0--4--0---2---4--5--4--2--0--
A--2---2---2---------0---0----------------
E-----------------------------------------

Verse 
e----------------------------
B----------------------------
G--7-7------7-7------7-7-----
D--7-7-4x---7-7-4x---7-7-5x-- 
A--5-5---------------0-0-----
E-----------7-7------5-5-----

Chorus 
e----------------------------------------
B----------------------------------------
G----------------------------------------
D--5555555555555555-4444444444444444-4/4- 
A--5555555555555555-5555555555555555-5/5- 4 times
E--3333333333333333-2222222222222222-0/2-

e-----------------------------------------
B-----------------------------------------
G-----------------------------------------
D----0---7---0--4--0---0---7---0--4--0----
A--5---5---5---------4---4---4------------
E-----------------------------------------

e-----------------------------------------
B-----------------------------------------
G-----------------------------------------
D----0---4---0--4--0---2---4--5--4--2--0--
A--2---2---2---------0---0----------------
E-----------------------------------------

e----------------------------
B----------------------------
G--7-7------7-7------7-7-----
D--7-7-4x---7-7-4x---7-7-5x-- 4 times
A--5-5---------------0-0-----
E-----------7-7------5-5-----

e----------------------------------------
B----------------------------------------
G----------------------------------------
D--5555555555555555-4444444444444444-4/4- 
A--5555555555555555-5555555555555555-5/5- 4 times
E--3333333333333333-2222222222222222-0/2-
before the outro(piano)
e--------
B--------
G--7-----
D--7-5-7-
A--5-5-7- 4 times
E----3-5-
main outro
e----------------------------------------
B----------------------------------------
G----------------------------------------
D--5555555555555555-4444444444444444-4/4- 
A--5555555555555555-5555555555555555-5/5- 4 times
E--3333333333333333-2222222222222222-0/2-
outro (acoustic)
e-------------
B-------------
G----7-9-11-7-
D--7---------- you could end it like this (optional)
A------------- 
E-------------
this song is better if you play it with 2 guitarist...
8.ROLLER COASTER
Intro/Outro
e----------------------------------------
B----------------------------------------
G--6---6--7--6--------6---6--7--6--------
D----7---------7---7----7---------7---7--
A----------------0------------------0----
E----------------------------------------

Chorus 1 & 2 
e------------------------------------------------
B------------------------------------------------
G------------------------------------------------
D------7----------7--------------7----------7----
A--0-0---8x---5-5---4x-------------2x---5-5---2x-
E----------------------------7-7-----------------

Pre-Verse Riff
e----------------------------------------
B----------------------------------------
G----------------------------------------
D----------------------------------------
A--4---4--5--4---0----4---4--5--4---0----
E----5---------5---5----5---------5---5--

Verse 
e--------------------------
B--------------------------
G--------7777--------7777--
D--7777--7777--9999--7777--
A--7777--5555--9999--5555-- 4 times
E--5555--------7777--------

Chorus 3 
e------------------------------------------
B------------------------------------------
G--------------------77777777--------7777--
D--7777777777777777--77777777--9999--7777--
A--7777777777777777--55555555--9999--5555-- 2 times
E--5555555555555555------------7777--------

9.RECKLESS ABANDON
Intro
e--------------------------------------------
B--------------------------------------------
G--44444444----------------------------------
D--44444444--22222222--6666--4444--22222222--
A--22222222--22222222--6666--4444--22222222--
E------------00000000--4444--2222--00000000--

Main Riff
e-----------------------------------
B-----------------------------------
G-----------------------------------
D-----------------------------------
A-6---9-7-6---9-7-6---9-7-6---6-7---
E---7-------7-------7-------7-----9-

Verse 
e--------------------------------------
B--------------------------------------
G--4444444444444444--------------------
D--4444444444444444--4444444444444444--
A--2222222222222222--4444444444444444-- 2 times
E--------------------2222222222222222--

Chorus Part 1
e--------------------------------------------
B--------------------------------------------
G--44444444----------------------------------
D--44444444--22222222--6666--4444--22222222--
A--22222222--22222222--6666--4444--22222222--
E------------00000000--4444--2222--00000000--

Chorus Part 2
e-----------------
B-----------------
G-----------------
D--6666--4444--2--
A--6666--4444--2--
E--4444--2222--0--

Bridge 
e--------------
B--------------
G--4-----------
D--4--2--6--4--
A--2--2--6--4-- 4 times
E-----0--4--2--

10.EVERYTIME I LOOK FOR YOU
Intro 
e--------------------------------------
B--------------------------------------
G--44-44-4444-44-4444-44-4444-44-4444--
D--xx-xx-xxxx-xx-xxxx-xx-xxxx-xx-xxxx--
A--22-22-2222-22-2222-22-2222-22-2222--
E--------------------------------------

Pre-Verse 
e-----------------------------------------
B--4--0--5--4--0--5--4--0--5--4--0--2--4--
G-----------------------------------------
D-----------------------------------------
A----------------------------------------- 2 times
E-----------------------------------------

Pre-Chorus 
e-----------------------------------------
B--4--0--2--4--0--2--4--0--2--4--0--2--4--
G-----------------------------------------
D-----------------------------------------
A----------------------------------------- 2 times
E-----------------------------------------

Chorus Part 1 
e--------------------------------------
B--------------------------------------
G--44-44-4444-44-4444-44-4444-44-4444--
D--xx-xx-xxxx-xx-xxxx-xx-xxxx-xx-xxxx--
A--22-22-2222-22-2222-22-2222-22-2222--
E--------------------------------------

Chorus Part 2 
e------------
B------------
G------------
D--22222222--
A--22222222--
E--00000000--

Solo 
e------------------------------
B------------------------------
G--4-------8------11--6--------
D--x-8x----x-8x----x--x-32x----
A--2-------6-------9--4-------- 6 times
E------------------------------

11.GIVE ME ONE GOOD REASON
Intro Part 1
e------------------------------------
B------------------------------------
G------1---1-------------------------
D----2-------2----4--2---4--2--2x----
A--2-----2------2------2-------------
E------------------------------------

Intro Part 2
e--------------------------------------------------2-2-2-2--
B-----------------------------------------------------------
G----------------------------------------------1------------
D----6------6------2--2---2----6------6------2--------------
A--4---7--4---7--0------0----4---7--4---7--2----------------
E-----------------------------------------------------------

Verse (Palm Muted)
e---------------------------------------------------
B---------------------------------------------------
G--------44444-------44444-66666-22222-66666-44444--
D--22222-44444-22222-44444-66666-22222-66666-44444--
A--22222-22222-22222-22222-44444-00000-44444-22222--
E--00000-------00000--------------------------------

Fill Riff 
e------------------------
B------------------------
G-----------1------------
D--2-2-2-2----x-x-1h2-2--
A--2-2-2-2---------------
E--0-0-0-0---------------

Chorus Parts 1 & 3 
e--------------------------------------
B--------------------------------------
G--------------------4444444444444444--
D--22222222-66666666-4444444444444444--
A--22222222-66666666-2222222222222222--
E--00000000-44444444-------------------

Chorus Parts 2 & 4 
e---------------------------------------
B---------------------------------------
G--------------------44444444-22222222--
D--22222222-66666666-44444444-22222222--
A--22222222-66666666-22222222-00000000--
E--00000000-44444444--------------------

Solo Parts 1 & 3
e--------------------------------------------------------
B--------------------------------------------------------
G--999-11-11-11-13-13-13-14-14-14-13-11-9-9-9---9-9-9----
D--xxx--x--x--x--x--x--x--x--x--x--x--x-x-x-x-9-x-x-x-9--
A--777--9--9--9-11-11-11-12-12-12-11--9-7-7-7-x-7-7-7-x--
E---------------------------------------------7-------7--

Solo Parts 2 & 4
e-----------------------------------------------------------
B-----------------------------------------------------------
G--999-11-11-11-13-13-13-14-14-14-13-11-11-11-11-11-13-9-9--
D--xxx--x--x--x--x--x--x--x--x--x--x--x--x--x--x--x--x-x-x--
A--777--9--9--9-11-11-11-12-12-12-11--9--9--9--9--9-11-7-7--
E-----------------------------------------------------------

Solo Parts 2 & 4 continued Part 4 Ending
e---------------------------------
B---------------------------------
G--11-11-11-11-11-13-9-9-----8-9--
D---x--x--x--x--x--x-x-x-----x-x--
A---9--9--9--9--9-11-7-7-----6-7--
E---------------------------------

12.SHUT UP
Intro
e------------
B------------
G--22222222--
D------------
A------------
E------------

Fill Riff/Outro
e------0-------0-------0-------0----
B-----------------------------------
G----2---2---2---2---2---2---2---2--
D--------------------------0--------
A--0-------0-------4----------------
E-----------------------------------

Chorus Part 1 
e----------------------------
B----------------1010101010--
G--77777----------9-9-9-9-9--
D--77777--77777---7-7-7-7-7--
A--55555--77777-------------- 2 times
E---------55555--------------

Chorus Part 2 
e---------------------
B---------------------
G--44444444-77777777--
D--44444444-77777777--
A--22222222-55555555-- 2 times
E---------------------

Verse 3 
e--------------------------------------
B--------------------------------------
G-------------------66666666-77777777--
D--7777777777777777-66666666-77777777--
A--7777777777777777-44444444-55555555-- 4 times
E--5555555555555555--------------------

Bridge
e---------------------------------------
B---------------------------------------
G--9-9-9-9-9-9-9-9-11-11-11-11-7-7-7-7--
D--9-9-9-9-9-9-9-9-11-11-11-11-7-7-7-7--
A--7-7-7-7-7-7-7-7--9--9--9--9-5-5-5-5--
E---------------------------------------

Solo Part 1
e-----------------------------------
B-----------------------------------
G-----------------------------------
D--7-16x-6-8x-4-8x-11-16x-9-8x-7-8x-
A-----------------------------------
E-----------------------------------

Solo Part 2
e--------------------------------------
B--------------------------------------
G--------------------------------------
D--7-16x-6-8x-4-8x-11-16x-9-8x-12-16x--
A--------------------------------------
E--------------------------------------

13.PLEASE TAKE ME HOME
Intro 
e---------------------------
B---------------------------
G--4-888888888888888--------
D--x-999999999999999-99999--
A--2-666666666666666-99999-- 2 times
E--------------------77777--

Verse (Palm Muted)
e---------------------------------------
B---------------------------------------
G--44444444-66666666--------------------
D--44444444-66666666-66666666-22222222--
A--22222222-44444444-66666666-22222222-- 4 times
E--------------------44444444-00000000--

Pre-Chorus 
e----------------------------------------------
B----------------------------------------------
G--------44444---------------------------------
D--22222-44444-66666-44444-2222222222222222-4--
A--22222-22222-66666-44444-2222222222222222-4--
E--00000-------44444-22222-0000000000000000-2--

Chorus 
e-------------------------------------------
B-------------------------------------------
G--4444-3333-----------4444-3333------------
D--4444-3333-6666-2222-4444-3333-6666-2222--
A--2222-1111-6666-2222-2222-1111-6666-2222--
E------------4444-0000-----------4444-0000--

Bridge Part 1 
e----------------------
B----------------------
G----------------------
D--4-4--6-6--8-8--9-9--
A--2-2--4-4--6-6--7-7-- 4 times
E----------------------

Bridge Part 2 (Palm Muted) 
e---------------------------------------
B---------------------------------------
G--44444444-66666666-88888888-99999999--
D--44444444-66666666-88888888-99999999--
A--22222222-44444444-66666666-77777777-- 2 times
E---------------------------------------

Solo Part 1 
e---------------------------------------
B---------------------------------------
G--44444444-33333333-888888888-666-4-6--
D--xxxxxxxx-xxxxxxxx-xxxxxxxxx-xxx-x-x--
A--22222222-11111111-666666666-444-2-4-- 2 times
E---------------------------------------

Solo Part 2 
e--------------------------------
B--------------------------------
G--88-888-88-888-88-888-4-44444--
D--xx-xxx-xx-xxx-xx-xxx-x-xxxxx--
A--66-666-66-666-66-666-2-22222-- 2 times
E--------------------------------

=                                                                         =
=                           Bonus Tracks                                  =
=                                                                         =
=                  Take Off (airplain)mark's red cd                       =
14a. Time To Break Up
Intro
e------------------
B------------------
G------------------
D--66-444-444-6-6--
A--66-444-444-6-6--
E--44-222-111-4-4--

Fill Riff
e--------------------------------------------
B--------------------------------------------
G--------------------------------------------
D------3-3-1-1-----3-3-1-1-----3-3-1---4--6--
A--4-4---------4-4---------------------4--6--
E--------------------------4-4---------2--4--

Verse Part 1
e-----------------------------------
B-----------------------------------
G--6-6-6-6-6-6-6-6-6-6-6-6-6-6-6-6--
D--x-x-x-x-x-x-x-x-x-x-x-x-x-x-x-x--
A--4-4-4-4-4-4-4-4-4-4-4-4-4-4-4-4--
E-----------------------------------

Verse Part 2 
e-------------------
B-------------------
G--6-6-6-6-6-6-6-6--
D--6-6-6-6-6-6-6-6--
A--4-4-4-4-6-6-4-4-- 2 times
E-------------------

Chorus 
e---------------------------------------
B---------------------------------------
G--66666666-----------------------------
D--66666666-44444444-44444444-66666666--
A--44444444-44444444-44444444-66666666-- 2 times
E-----------11111111-22222222-44444444--

Solo 
e-----------------------------------------------------------------
B-----------------------------------------------------------------
G-----------------------------------------------------------------
D-----------------------------------------------------------------
A---4---4---4---4---4---4---4---4---4---4---4---4---6---6---6---6- 3 times
E-6---6---6---6---2---2---2---2---4---4---4---4---4---4---4---4---

Post-Solo
e-----------------------------
B-----------------------------
G--6-6-------6-6--------------
D--6-6--6-6--6-6--6-6--66-66--
A--4-4--6-6--4-4--6-6--66-66--
E-------4-4-------4-4--44-44--

Ending Riff 
e-------------------------------------
B-------------------------------------
G--6666666666666666-------------------
D--6666666666666666-6666666666666666--
A--4444444444444444-6666666666666666-- 4 times
E-------------------4444444444444444--
15a. Mother's Day
Verse 
e---------------------------------
B---------------------------------
G---------------------------------
D--2-22-2222-22-2222-22-5555-4-3--
A--2-22-2222-22-2222-22-5555-4-3--
E--0-00-0000-00-0000-00-3333-2-1--

Chorus 
e--3333-3333-3333-3333--
B--3333-3333-3333-3333--
G--0000-0000-0000-2222--
D--2222-2222-0000-0000--
A--2222-3333-2222-------
E--0000------3333-------

Ending
e--0--
B--0--
G--0--
D--2--
A--2--
E--0--
=                   your Pants (pants) tom's yellow cd                    =                
14b. What Went Wrong
Intro
e--------------------
B--------------------
G-----4--2-----4--2--
D--2--------2--------
A--------------------
E--------------------

Fill Riff 
e--------------------------------------
B--------------------------------------
G----------------------------77777777--
D--7777777777777777-44444444-77777777--
A--7777777777777777-44444444-55555555-- 2 times
E--5555555555555555-22222222-----------

Verse 
e---------------------------------------
B---------------------------------------
G--------------------99999999-77777777--
D--77777777-44444444-99999999-77777777--
A--77777777-44444444-77777777-55555555-- 2 times
E--55555555-22222222--------------------

Chorus 
e---------------------------------------
B---------------------------------------
G-----------------------------77777777--
D--77777777-55555555-44444444-77777777--
A--77777777-55555555-44444444-55555555-- 2 times
E--55555555-44444444-22222222-----------

Solo Part 1
e------0---------------0----------------0---------------0------------
B--------------2---------------2----------------2---------------2----
G----2---2---2---2---2---2---2---2----2---2---2---2---2---2---2---2--
D-----------------------------------0-------0-------0-------0--------
A--------------------------------------------------------------------
E--2-------2-------2-------2-----------------------------------------

Solo Part 2
e------0---------------0-----------------------------------------
B--------------2---------------2--------2-----2------------------
G----2---2---2---2---2---2---2---2----2-----2-----2---2222-2222--
D-----------------------------------0-----0-----0-----0000-0000--
A--0-------0-------2-------2-------------------------------------
E----------------------------------------------------------------

Post Solo Part 1 
e--------------------------------------
B--------------------------------------
G-----------77777777-------------------
D--44444444-77777777-7777777777777777--
A--44444444-55555555-7777777777777777-- 2 times
E--22222222----------5555555555555555--

Post Solo Part 2
e---------------------
B---------------------
G--99999999-77777777--
D--99999999-77777777--
A--77777777-55555555--
E---------------------

Ending Riff 
e--------------------------------------
B--------------------------------------
G----------------------------77777777--
D--7777777777777777-44444444-77777777--
A--7777777777777777-44444444-55555555--
E--5555555555555555-22222222-----------
15b. Fuck A Dog
Main Riff
e-----------------
B---0-------------
G-----0---0-----2-
D-0-----0-----0---
A-----------3-----
E-----------------

Ending
e----------0-
B----------0-
G---0---00-0-
D-----0----0-
A-2--------2-
E------------
=                 And Jacket (jacket) travis green cd                     =
14c. Don't Tell Me It's Over
Intro 
e------------------------------
B------------------------------
G--5------5-5------5------5-5--
D--5------5-5------5------5-5--
A--3------3-3------3------3-3--
E------------------------------

Pre-Chorus 
e----------------------
B----------------------
G--55555555------------
D--55555555-5555-3333--
A--33333333-5555-3333--
E-----------3333-1111--

Chorus 
e--------------------------------------
B--------------------------------------
G--5555555555555555--------------------
D--5555555555555555-55555555-33333333--
A--3333333333333333-55555555-33333333--
E-------------------33333333-11111111--

Verse
e------------
B------------
G--5---------
D--5-5-3-----
A--3-5-3-----
E--------3-1-

Fill Riff
e--------------------------------------------------
B--------------------------------------------------
G--------------------------------------------------
D--------------------------------------------------
A- -4--4--4--4--4--4--4--4--4--4--4--4--6--6--6--6-
E-6--6--6--6--2--2--2--2--4--4--4--4--4--4--4--4---

Bridge (Palm Muted)
e----------------------------------
B----------------------------------
G--55555-55-55-5555----------------
D--55555-55-55-5555-55555-33-3333--
A--33333-33-33-3333-55555-33-3333--
E-------------------33333-11-1111--
15c. When You Fucked Grandpa
Intro 
e--2-----0-----2-----0------------------------------
B-----3-----3-----3-----3---3------3/5---2-----2/3--
G------------------------------0------------2-------
D--0-----0-----0-----0------------------------------
A----------------------------------------0---------- 4 times
E---------------------------3------3----------------

Verse 2
e----------------------------------------------------------------------------
B--3-----3-----3-----3------3-----3-----3-----3------3-----3-----3-----3-----
G-----0-----0-----0-----2------2-----2-----0-----0------0-----2-----2-----2--
D----------------------------------------------------------------------------
A---------------------------0-----0-----0-----0------------------------------
E--3-----3-----3-----3-------------------------------3-----3-----3-----3-----

e----------------------------------------------------------------------------
B--3-----3-----3------3-----3-----3-----3-----3------3-----3-----3-----3-----
G-----0-----0-----0------2-----2-----2-----0-----0------0-----2-----2-----2--
D----------------------------------------------------------------------------
A--0-----0-----0------0------------------------------0-----0-----0-----0-----
E---------------------------3-----3-----3-----3------------------------------

e-----------------------------
B--2-----2-----2-----2-----2--
G-----2-----2-----2-----2-----
D-----------------------------
A--0-----0-----0-----0-----0--
E-----------------------------

Ending
e-----
B--3--
G-----
D-----
A--0--
E-----
= PUBLISHED BY CARLOS ORTIZ IF YOU WANT TO REACH ME YOU COULD REACH ME @  =
2001





Comments


Popular *Blink 182* tabs & chords
Adams Song Bass Tabs
All The Small Things Intro 00 Tabs
Dammit 12 Tabs
Dont Tell Me Its Over 2 Tabs
First Date 9 Tabs
Going Away To College 1 Tabs
Grandpa Is A Asshole Tabs
Online Songs 2 Tabs
Wasting Time 2 Tabs
What Went Wrong? Tabs


Song lyrics



↑ Back to top | Tablatures and chords are parodies/interpretations of the original songs. You may use it for private study, scholarship, research or language learning purposes only
© 2014 AZChords.com Contact us | Privacy policy | DMCA | Add/correct tabs | Request tabs | Top 50 tabs