» » »

*Blink 182*, Take Of Your Pants And Jacket First Date Bass tabs (ver.1)

Artists:  A B C D E F G H I J K L M N O P Q R S T U V W X Y Z # 

Take Of Your Pants And Jacket First Date Bass tabs (ver.1)

*Blink 182* Tabs
 Rating:
4/5 (4 votes)
Take Of Your Pants And Jacket First Date lessons Tabs too difficult? Try these video lessons and learn fast
1
                Blink 182 
firts date
take of your pants and jacket
INTRO
G-----------------------------------------------------------------------------------
D--------------------------------3-3-3-3-3-3-3-3 5-5-5-5-5-5-5-5-------------------
A 3-3-3-3-3-3-3-3 5-5-5-5-5-5-5-5--------------------------------------------------
E-----------------------------------------------------------------------------------
VERSE
G------------------------------------------------------------------------------------
D-----------------------------------------------------------------------------------
A 3-3-3-3-3-3-3-3-3-3-3-3-3-3-3-3-3------------------------------------------4times
E ---------------------------------3-3-3-3-3-3 1-1-1-1-1-1-------------------------
choures
G------------------------------------------------------------------------------------
D-------------------------------------------------------------------------------
A 3-3-2-2-0-0-0-0-0-0------2 TIMES-----------------------------------------------------
E--------------------1-3--------------------------------------------------------
2ND PART IF COURES
G---------------------------------------------------------------------------------
D---------------------------------------------------------------------------------
A 3-3-3-3-3-3-3-3-2-2-2-2-2-2-2-2------2TIMES----------------------------------------E -------------------------------1-3---------------------------------------------- 

ORDER OF SONG.
INTRO
VERSE 
CHOURES1
CHOURES2
INTRO
VERSE
CHOURES1
CHOURES2
CHOURES1
CHOURES2
            
Submit corrections

comments powered by Disqus
↑ Back to top | *Blink 182* Bass for Take Of Your Pants And Jacket First Date. Lyrics for acoustic guitar and electric guitar. 1 Tablatures and chords are parodies/interpretations of the original songs. You may use it for private study, scholarship, research or language learning purposes only