» » »

*Blink 182*, Stockholm Syndrome Tabs (ver.3)

Artists:  A B C D E F G H I J K L M N O P Q R S T U V W X Y Z # 

Stockholm Syndrome Tabs (ver.3)

*Blink 182* Tabs
Rating:
0/5 (0 votes)
Stockholm Syndrome lessons Tabs too difficult? Try these video lessons and learn fast
                Intro Guitar 1 (Distorted):
e|---------------------------------------------------|
B|---------------------------------------------------|
G|------5555-4444-2222-------5555-4444-2222-55555555-|
D|-2222-5555-4444-2222--2222-5555-4444-2222-55555555-|
A|-2222-3333-2222-0000--2222-3333-2222-0000-33333333-|
E|-0000-----------------0000-------------------------|

Intro Guitar 2 (Distorted):
e|------------------------------|
B|---------12----------------12-|
G|---------------12-12-12-------|
D|------12----------------12----|
A|------------------------------|
E|------------------------------| Repeat second part throughout rest of intro...

Chorus (Distorted):
e|-------------------------------------------------------------------------|
B|-------------------------------------------------------------------------|
G|----------55555555-44444444-2222--------------55555555-44444444-22225555-|
D|-22222222-55555555-44444444-22225555-22222222-55555555-44444444-22225555-|
A|-22222222-33333333-22222222-00005555-22222222-33333333-22222222-00003333-|
E|-00000000-----------------------3333-00000000----------------------------|

Break after Chorus (Distorted) REPEAT SPECIFIC PART SHOWN BELOW:
e|---------------------------------------------------------------------------|
B|---------------------------------------------------------------------------|
G|---------------------------------------------------------------------------|
D|-55555\4-55555\4--5-7-9-55\4--55555\4-55555\4--5-7-9-55\4--55555\4-55555\4-|
A|-xxxxx-x-xxxxx-x--x-x-x-xx-x--xxxxx-x-xxxxx-x--x-x-x-xx-x--xxxxx-x-xxxxx-x-|
E|-33333\2-33333\2--3-5-7-33\2--33333\2-33333\2--3-5-7-33\2--33333\2-33333\2-|
 ->| Repeat this |<-

Chorus Guitar 1 (Distorted, Palm Muted) REPEAT ONCE WITH GUITAR 2 BUT END ON A5 POWER CHORD:
e|-------------------------------------------------------------------------|
B|-------------------------------------------------------------------------|
G|----------55555555-44444444-2222--------------55555555-44444444-22225555-|
D|-22222222-55555555-44444444-22225555-22222222-55555555-44444444-22225555-|
A|-22222222-33333333-22222222-00005555-22222222-33333333-22222222-00003333-|
E|-00000000-----------------------3333-00000000----------------------------| Repeat x1
PM ........ ........ ........ ........ ........ ........ ........ ........

Chorus Guitar 2 - Come in mid-chorus of Guitar 1 (Light Distortion):
e|----------------------------------------------------------------------------|
B|----------------------------------------------------------------------------|
G|----14-12----11-12----14-12----11-12----14-12--14-11-12--14-11-12--14-11-12-|
D|-12-------12-------12-------12-------12-------------------------------------|
A|----------------------------------------------------------------------------|
E|----------------------------------------------------------------------------|

Chorus (Distorted):
e|-------------------------------------------------------------------------|
B|-------------------------------------------------------------------------|
G|----------55555555-44444444-2222--------------55555555-44444444-22225555-|
D|-22222222-55555555-44444444-22225555-22222222-55555555-44444444-22225555-|
A|-22222222-33333333-22222222-00005555-22222222-33333333-22222222-00003333-|
E|-00000000-----------------------3333-00000000----------------------------| Repeat x2

End on (Distorted):
e|---------------------|
B|---------------------|
G|---------------------|
D|-2-------------------|
A|-2-------------------|
E|-0-------------------|
            
Submit corrections

comments powered by Disqus
↑ Back to top | *Blink 182* Tabs for Stockholm Syndrome. Lyrics for acoustic guitar and electric guitar. Tablatures and chords are parodies/interpretations of the original songs. You may use it for private study, scholarship, research or language learning purposes only