>
 >
Stockholm Syndrome

Stockholm Syndrome Guitar Tabs

*Blink 182* - Stockholm Syndrome chords, tabs, tablatures, lyrics

Guitar lessons | Add/correct | Request | Top 50 tabs Artists:  A B C D E F G H I J K L M N O P Q R S T U V W X Y Z 0-9

Stockholm Syndrome Guitar Tabs – *Blink 182*

CD, Sheet music, Poster

Do you like Stockholm Syndrome? Share with your friends now
TabsTabs v2Tabs v3
Blink 182
Standard Tuning
Let ring = ~
Natural Harmonic = *







Intro
Part 1 (Distortion)
E||---------------------------------------------------|
B||---------------------------------------12*---------|
G||-4444--5555--4444---------12*----------------------|
D||-5555--5555--5555--7777-------12*--12*-------------|
A||-2222--3333--2222--7777----------------------------|
E||-0000--------3333--5555----------------------------|




Part 2


Guitar 1 (Distortion)

E||------------------------------------|
B||------------------------------------|
G||-4444--5555--4444--------555555-----|
D||-5555--5555--5555--7777--555555-----|
A||-2222--3333--2222--7777--333333-----|
E||-0000--------3333--5555-------------|


Guitar 2

E||------------------------------------|
B||-----------12-----------------------|
G||--12-12-----------------------------| (x4)
D||--------12--------------------------|
A||------------------------------------|
E||------------------------------------|







Chorus (Distortion)

Riff A
E||------------------------------------------------------------------------|
B||------------------------------------------------------------------------|
G||-444444444444--555555555555--444444444444-------------------------------|
D||-555555555555--555555555555--555555555555--777777777777--5555555555-----|
A||-222222222222--333333333333--222222222222--777777777777--5555555555-----|
E||-000000000000----------------333333333333--555555555555--3333333333-----|

Riff B
E||------------------------------------------------------------------------|
B||------------------------------------------------------------------------|
G||-444444444444--555555555555--444444444444----------------5555555555-----|
D||-555555555555--555555555555--555555555555--777777777777--5555555555-----|
A||-222222222222--333333333333--222222222222--777777777777--3333333333-----|
E||-000000000000----------------333333333333--555555555555-----------------|










Interlude
Part 1 (Distortion)

E||---------------------------------|
B||---------------------------------|
G||---------------------------------| (x2)
D||----5-5-5-5-5-4---5-5-5-5-5-5-5-5|
A||----5-5-5-5-5-4---5-5-5-5-5-5-5-5|
E||----3-3-3-3-3-2---3-3-3-3-3-3-3-3|

E||---------------------------------------------------|
B||---------------------------------------------------|
G||---------------------------------------------------|
D||--5--7--9--5--5-4-----5-5-5-5-5-4---5-5-5-5-5-5-5-5| (x2)
A||--5--7--9--5--5-4-----5-5-5-5-5-4---5-5-5-5-5-5-5-5|
E||--3--5--7--3--3-2-----3-3-3-3-3-2---3-3-3-3-3-3-3-3|



Part 2
Guitar 1
Palm Muted


E||---------------------------------------------------------------| 
B||---------------------------------------------------------------|
G||---------------------------------------------------------------|
D||---------------------------------------------------------------| (x3)
A||---------------------------------------------------------------|
E||777777777777887788888888888888887777777777777777555555558888888|

Note: On the third time playing this, instead of playing 8888888 at the end, play 8~, 
and just let it ring.


Guitar 2
Clean

(Note: This part kicks in on the second time Guitar 1 goes through it's riff)

E||--5-3----2-3----5-3-----2-3----5-3---5-2-3---5-2-3--5-2-3--|
B||3------3------3---------------3----------------------------|
G||-----------------------------------------------------------|
D||-----------------------------------------------------------|
A||-----------------------------------------------------------|
E||-----------------------------------------------------------|







Verse (Distortion)



E||------------------------------------------------------------------------|
B||------------------------------------------------------------------------|
G||-4444444444444455555555555555444444444444----------------555555555555---|
D||-55555555555555555555555555555555555555555577777777777777555555555555---| (x2)
A||-22222222222222333333333333332222222222222277777777777777333333333333---|
E||-00000000000000--------------3333333333333355555555555555---------------|





Chorus

Guitar 1
Riff A
E||------------------------------------------------------------------------|
B||------------------------------------------------------------------------|
G||-444444444444--555555555555--444444444444-------------------------------|
D||-555555555555--555555555555--555555555555--777777777777--5555555555-----|
A||-222222222222--333333333333--222222222222--777777777777--5555555555-----|
E||-000000000000----------------333333333333--555555555555--3333333333-----|

Riff B
E||------------------------------------------------------------------------|
B||------------------------------------------------------------------------|
G||-444444444444--555555555555--444444444444----------------5555555555-----|
D||-555555555555--555555555555--555555555555--777777777777--5555555555-----|
A||-222222222222--333333333333--222222222222--777777777777--3333333333-----|
E||-000000000000----------------333333333333--555555555555-----------------|



Guitar 2 (starts with Guitar 1, Riff B)


E||------------------|
B||-----------12-----|
G||--12-12-----------| (x4)
D||--------12--------|
A||------------------|
E||------------------|


End on

E||-----
B||-----
G||--4--
D||--5--
A||--2--
E||--3--





Comments


Popular *Blink 182* tabs & chords
Carousel 10 Bass Tabs
Depends Bass Tabs
Feels So Good 1 Bass Tabs
Longest Line Bass Tabs
Dammit Drum Tabs
Adams Song 4 Tabs
Anthem Part Two Tabs
Boring 1 Tabs
Dammit 13 Tabs
What Went Wrong 100% Tabs


Song lyrics



↑ Back to top | Tablatures and chords are parodies/interpretations of the original songs. You may use it for private study, scholarship, research or language learning purposes only
© 2014 AZChords.com Contact us | Privacy policy | DMCA | Add/correct tabs | Request tabs | Top 50 tabs