>
 >
Stockholme Syndrome

Stockholme Syndrome Guitar Tabs

*Blink 182* - Stockholme Syndrome chords, tabs, tablatures, lyrics

Guitar lessons | Add/correct | Request | Top 50 tabs Artists:  A B C D E F G H I J K L M N O P Q R S T U V W X Y Z 0-9

Stockholme Syndrome Guitar Tabs – *Blink 182*

CD, Sheet music, Poster

Do you like Stockholme Syndrome? Share with your friends now
Tabs
Tab Type: Guitar
Tuning: EADGBe (Standard)

Intro:
|-----------------------------------|
|-----------------------------------|
|-----------------------8-8--8-9-10-|
|-4444-5555-7777-9999---------------|
|-5555-5555-7777-xxxx---------------|
|-2222-3333-5555-7777---------------|x1

then
|--------------|--------------|--------------|
|-----8-8-9-10-|-----8-8-9-10-|-----8-8-9-10-|
|--------------|--------------|--------------|
|-4444---------|-7777---------|-9999---------|
|-5555---------|-7777---------|-9999---------|
|-2222---------|-5555---------|-7777---------|

|------------|-------------|
|------------|-------------|
|------------|-------------|
|-11111111---|-13131313----|
|-11111111---|-13131313----|
|--9-9-9-9---|-10101010----|

Chorus:
|-------------------------------------|
|-------------------------------------|
|-------------------------------------|
|-77777777-77777777-99999999-99999999-|
|-77777777-77777777-99999999-99999999-|
|-55555555-55555555-77777777-77777777-|
  
|-------------------------------------|
|-------------------------------------|
|-------------------------------------|
|-77777777-77777777-55555555-33333333-|
|-77777777-77777777-55555555-33333333-|x2
|-55555555-55555555-33333333-11111111-|

Bridge:
|----------|------------|
|----------|------------|
|----------|------------|
|-7777-7-4-|-7777-777-4-|
|-7777-7-6-|-7777-777-4-|
|-5555-5-4-|-5555-555-6-|

|---|-----|-----|-----|------|
|---|-----|-----|-----|------|
|---|-----|-----|-----|------|
|-7-|-9-9-|1111-|-9-9-|-7--7-|
|-x-|-x-x-|-x-x-|-x-x-|-x--x-|x2
|-5-|-7-7-|-9-9-|-7-7-|-5--5-|

then
|----------|------------|
|----------|------------|
|----------|------------|
|-7777-7-4-|-7777-777-4-|
|-7777-7-6-|-7777-777-4-|x1
|-5555-5-4-|-5555-555-6-|

Interlude:
|-------------------------------------|
|-------------------------------------|
|-------------------------------------|
|-77777777-77777777-99999999-99999999-|
|-77777777-77777777-99999999-99999999-|
|-55555555-55555555-77777777-77777777-|
Pm...................................  
|-------------------------------------|
|-------------------------------------|
|-------------------------------------|
|-77777777-77777777/55555555/33333333-|
|-77777777-77777777/55555555/33333333-|x2
|-55555555-55555555/33333333/11111111-|
  ...................................




BLINK RULE!!





Comments


Popular *Blink 182* tabs & chords
Carousel 10 Bass Tabs
Down Chords
First Date Chords
Aliens Exist Tabs
Anthem Part Two 7 Tabs
Bj Song Tabs
Carousel Tabs
First Date 5 Tabs
Going Away To College 2 Tabs
Merry Christmas Tabs


Song lyrics



↑ Back to top | Tablatures and chords are parodies/interpretations of the original songs. You may use it for private study, scholarship, research or language learning purposes only
© 2014 AZChords.com Contact us | Privacy policy | DMCA | Add/correct tabs | Request tabs | Top 50 tabs