» » »

*Blink 182*, Stay Together For The Kidz Tabs (ver.1)

Artists:  A B C D E F G H I J K L M N O P Q R S T U V W X Y Z # 

Stay Together For The Kidz Tabs (ver.1)

*Blink 182* Tabs
 Rating:
4/5 (4 votes)
Stay Together For The Kidz lessons Tabs too difficult? Try these video lessons and learn fast
                	                    Stay Together For The Kids - Blink 182


You maybe think that I copy all the tab from tab book, but I don't think that here in Israel
they got Blink 182 tab books. And I can't order it from the web because my mum won't let me
use her credit card - she thinks if I buy something with it someone will take the number of
the card and use it.

I added time in the last parts because sometimes they more complicated and hard to hear them.

It's definitely the best song on the album and my 3rd favourite song by Blink 182, as:

1st - Adam's Song
2nd - What's My Age Again?
3rd - Stay Together For The Kids

By the way, I tabed guitar & bass for all of them (except bass for STFTK), so if you want
copy of them just e-mail me and I'll do the rest.

Key
===
h - hammer on
p - pull off
[ ] - natural harmonic
( ) - artificial harmonic


Intro
Guitars A&B (w\ clean). After the first chorus only guitar A play it.

e|--------------------------------|--------------------------------|
B|--------------------------------|--------------------------------|
G|--------------------------------|--------------------------------| x2
D|--0---7-0---4-0---0---7-0---4-0-|--0---4-0---5-0---2---4-5-4-2-0-|
A|5---5-----5-----4---4-----4-----|2---2-----2-----0---0-----------|
E|--------------------------------|--------------------------------|

Verse 1&2 (Guitar)

Guitar Part
-----------
Guitars A&B (w\ clean)

e|--------------------------------|--------------------------------|
B|--------------------------------|--------------------------------|
G|----7-------7-------7-------7---|----7-------7-------7-------7---|
D|----7-------7-------7-------7---|----7-------7-------7-------7---|
A|5-5-----5-5-----5-5-----5-5-----|--------------------------------|
E|--------------------------------|7-7-----7-7-----7-7-----7-7-----|
                                                                     x2
e|--------------------------------|--------------------------------|
B|--------------------------------|--------------------------------|
G|----7-------7-------7-------7---|----9-------9-------6-------6---|
D|----7-------7-------7-------7---|----7-------7-------7-------7---|
A|--------------------------------|--------------------------------|
E|5-5-----5-5-----5-5-----5-5-----|5-5-----5-5-----5-5-----5-5-----|


Chorus

Chorus Part 1
-------------
Guitars A&B (w\ heavy distortion)

e|--------------------------------|--------------------------------|
B|--------------------------------|--------------------------------|
G|--------------------------------|--------------------------------| x3
D|5-5-5-5-5-5-5-5-5-5-5-5-5-5-5-5-|4-4-4-4-4-4-4-4-4-4-4-4-4-4-4-4-|
A|5-5-5-5-5-5-5-5-5-5-5-5-5-5-5-5-|5-5-5-5-5-5-5-5-5-5-5-5-5-5-5-5-|
E|3-3-3-3-3-3-3-3-3-3-3-3-3-3-3-3-|2-2-2-2-2-2-2-2-2-2-2-2-2-2-0-2-| 
                                                               ^ ^
                                                               Play quickly

Chorus Part 2
-------------
Guitars A&B (w\ heavy distortion)

e|--------------------------------|--------------------------------|
B|--------------------------------|--------------------------------|
G|--------------------------------|--------------------------------|
D|5-5-5-5-5-5-5-5-5-5-5-5-5-5-5-5-|4-4-4-4-4-4-4-4-4-4-4-4-4-4-4-4-|
A|5-5-5-5-5-5-5-5-5-5-5-5-5-5-5-5-|5-5-5-5-5-5-5-5-5-5-5-5-5-5-5-5-|
E|3-3-3-3-3-3-3-3-3-3-3-3-3-3-3-3-|2-2-2-2-2-2-2-2-2-2-2-2-2-2-2-2-|

Chorus Part 3
-------------
Guitar B (w\ heavy distortion). Guitar A plays Intro after the First Chorus and Bridge after
the second.

e|----------------|
B|----------------|
G|7---------------|
D|x---------------|
A|5---------------|
E|----------------|

Verse 2 (Guitar & Piano)

Piano Part
----------
I'm 90% sure about this part. This part is the hardest to tab in the song. If someone can
suggest here something I'll apreciate it. You'll have to listen very carefully to hear all the
notes that played here.

e|--10-------10------10------10---|--10-------10------10------10---|
B|7----7----------------7---------|7----7----------------7---------|
G|7-------------------------------|7-------------------------------|
D|--------------------------------|--------------------------------|
A|--------------------------------|--------------------------------|
E|--------------------------------|--------------------------------|

e|--10-------10------10------10---|--10-----10--------9-----9------|
B|-----7----------------7---------|--------------------------------|
G|7-------------------------------|9-----9---------6-----6---------|
D|7-------------------------------|7---------------7---------------|
A|--------------------------------|--------------------------------|
E|--------------------------------|--------------------------------|

e|--10-------10------10------10---|--10-------10------10------10---|
B|7----7----------------7---------|7----7----------------7---------|
G|7-------------------------------|7-------------------------------|
D|--------------------------------|--------------------------------|
A|--------------------------------|--------------------------------|
E|--------------------------------|--------------------------------|

e|--10-------10------10------10---|--10-----10--------9------9-----|
B|-----7----------------7---------|--------------------------------|
G|7-------------------------------|------9---------9-----9---------|
D|7-------------------------------|7-------------------------------|
A|--------------------------------|--------------------------------|
E|--------------------------------|--------------------------------|

Bridge (Piano & Guitar)

Piano Part 1
------------
The piano plays this part during all the Bridge.

 2:12

e|---10------10------10------10---|
B|-10--10--10--10--10--10--10--10-|
G|7-------7-------7-------7-------| x8
D|--------------------------------|
A|--------------------------------|
E|--------------------------------|

Piano Part 2
------------

 2:25                             2:29

e|--------------------------------|--------------------------------|
B|--------10------8-------7-------|8---------------5---------------|
G|--------------------------------|--------------------------------| x2
D|--------------------------------|--------------------------------|
A|--------------------------------|--------------------------------|
E|--------------------------------|--------------------------------|

Guitar Part 1
-------------
Guitar A (w\ clean)

 2:15                             2:19

e|--------------------------------|--------------------------------|
B|--------------------------------|7-------------------------------|
G|7---------------9---------------|7-------------------------------| x3
D|7---------------9---------------|7-------------------------------|
A|5---------------7---------------|--------------------------------|
E|--------------------------------|--------------------------------|

Guitar Part 2
-------------
Guitar A (w\ clean). Last note w\ heavy distortion & volume swell.

 2:35

e|----------------------[12]------|
B|--------------------------------|
G|7---------------9---------------|
D|7---------------9---------------|
A|5---------------7---------------|
E|--------------------------------|

Ourto (Piano & Acoustic Guitar)

Piano Outro
-----------
In this part there are really high notes, I mean notes from 3rd octave on the piano (in the
guitar it's 4th octave because you write the notes for guitar one octave higher than they 
really sound - because it's easier to read them like that), and it almost imposible to play 
it cuz you need to play it with artificial harmonics and there are parts with high notes 
that played fast and it's very hard to play and its sound not so good. What I'm trying to 
say is that if you don't know how to play on piano, just don't mess with this, on guitar 
it's just sound bad.

 3:15     3:18     3:21     3:25     3:28             3:31             3:35

e|--------|10------|10------|10------|10-----12h14--15|-------14-15-17-|----17-19-17----|
B|------10|------10|------10|------10|----------------|15--------------|----------------|
G|--------|--------|--------|--------|----------------|----------------|----------------|
D|--------|--------|--------|--------|----------------|----------------|----------------|
A|--------|--------|--------|--------|----------------|----------------|----------------|
E|--------|--------|--------|--------|----------------|----------------|----------------|

 3:38                             3:41                             3:45

e|--------17p15p14------14-15-----|---------------14-15-17---------|-----(15)-(14)-(12)-----|
B|----------------------------15--|15-17---------------------------|------------------------|
G|--------------------------------|------14------------------------|------------------------|
D|--------------------------------|--------------------------------|------------------------|
A|--------------------------------|--------------------------------|------------------------|
E|--------------------------------|--------------------------------|------------------------|

 3:48                                         3:51

e|-(15)-(14)------(17)---------------(14)-(15)|(14)----------------------------------------|
B|-----------(15)-----------------------------|-----------(15)-(17)-(15)---(10)-(12)-(10)--|
G|--------------------------------------------|--------------------------------------------|
D|--------------------------------------------|--------------------------------------------|
A|--------------------------------------------|--------------------------------------------|
E|--------------------------------------------|--------------------------------------------|

  3:54                                                            3:58

e|-------------------------17-17-17-17---15-15-15-15---14-14-14---|12--10-10---------------|
B|----------------------------------------------------------------|------------------------|
G|----------------------------------------------------------------|------------------------|
D|----------------------------------------------------------------|------------------------|
A|----------------------------------------------------------------|------------------------|
E|----------------------------------------------------------------|------------------------|

Acoustic Guitar Outro
---------------------
Acoustic Guitar (w\ clean)

 3:28     3:31     3:35     3:38     3:41             3:45             3:48

e|--------|--------|--------|--------|------0-2-------|------0-2-------|--------0-------|
B|--------|3-------|3-------|3-------|3---------3-----|3---------3-----|3---------------|
G|-------2|-------2|-------2|-------2|---------------2|---------------2|------2--------2|
D|--------|--------|--------|--------|----------------|----------------|----------------|
A|--------|--------|--------|--------|----------------|----------------|----------------|
E|--------|--------|--------|--------|----------------|----------------|----------------|

3:51              3:54             3:58     In this point the song ends

e|------0-2-------|-------0--------|----------------|
B|3---------3-----|3---------------|3---------------|
G|---------------2|-----2---------2|----------------|
D|----------------|----------------|----------------|
A|----------------|----------------|----------------|
E|----------------|----------------|----------------|

Song Order
Intro (x2)
Verse 1 (Guitar) (x2)
Chorus Part 1 (x3)
Chorus Part 2
Chorus Part 3 and in the same time Intro
Verse 2 Guitar (x2) & Piano
Chorus Part 1 (x3)
Chorus Part 2
Chorus Part 3 and in the same time Bridge - Piano Part 1
Bridge - Guitar Part 1
Bridge - Piano Part 2
Bridge - Guitar Part 2
Chorus Part 1 (x7)
Piano Outro (played in the end of the 6th repeat of Chorus Part 1 after the Bridge)
Chorus Part 2 
Chorus Part 1
Chorus Part 2
Chorus Part 1
Chorus Part 2
Chorus Unknown Part (the song ends)

By the way this song may be related to Mark, because his parents divorsed and didn't stay
together for him. Well, maybe he wished so and now he wrote a song about it (great one).
            
Submit corrections

comments powered by Disqus
↑ Back to top | *Blink 182* Tabs for Stay Together For The Kidz. Lyrics for acoustic guitar and electric guitar. Tablatures and chords are parodies/interpretations of the original songs. You may use it for private study, scholarship, research or language learning purposes only