» » »

Stay Together For The Kids Tabs (ver.4)

Artists:  A B C D E F G H I J K L M N O P Q R S T U V W X Y Z # 

Stay Together For The Kids Tabs (ver.4)

*Blink 182*
Rating:
0/5 (0 votes)

Hard to play? Try these video lessons and learn fast.
                (Actually)
Intro (Clean) 

|-------------------|-----------------------|-------------------------|----------------------|
|-------------------|-----------------------|-------------------------|----------------------|
|--------2----------|-----------2-----------|-------------------------|----------------------|
|----0------0--4--0-|-----0--------0--4--0--|-----0-----4-----0--5--0-|-----2--4--5--4--2--0-|
|--5---5------------|--4-----4--------------|--2-----2-----2----------|--0-------------------|
|-------------------|-----------------------|-------------------------|----------------------|

Verse (Clean)

|----------------|------------------|------------------|
|----------------|------------------|------------------|
|--------7--7----|-----------7--7---|----------7--7----|
|--------7--7--X2|---------7--7---X2|--------7--7----X5|
|--5--5----------|------------------|------------------|
|----------------|-----7--7---------|----5--5----------|

Chorus (Distorted)

|------------------|
|------------------|
|------------------|
|--5-------4-------|
|--5--x16--5--x15--|
|--3-------2-------|

Interlude

|------------------
|------------------
|--7--------7--------
|--7--7--5--7----------
|--5--7--5--5----------
|-----5--3-----------


Riff
Verse
Chorus
Riff
Verse
Chorus
Interlude
Chorus (No Words)
Chorus


Lyrics:

Verse 1
Its hard to wake up
When the shades have been pulled shut
This house is haunted
Its so pathetic
It makes no sense at all
   
Im ripe with things to say
The words rot and fall away
What stupid poem 
Could fix this home
Id read it every day


Chorus
So heres your holiday         
Hope you enjoy it this time...
You gave it all away......
It was mine
So when youre dead and gone
Will you remember this night 
20 years now lost
Its not right

Verse 2
Their anger hurts my ears
Been running strong for seven years
Rather then fix the problems
They never solve them
It makes no sense at all

I see them every day
We get along so why cant they?
If this is what he wants
And its what she wants
Then whys there so much pain?

Chorus
So heres your holiday         
Hope you enjoy it this time...
You gave it all away......
It was mine
So when youre dead and gone
Will you remember this night 
20 years now lost
Its not right
Its not right
Its not right
Its not right

This is right now f**kin play that sh*t
Blink Rocks
Later Skater
            
Hard to play? Try these video lessons and learn fast. | Correct




comments powered by Disqus
↑ Back to top | Tablatures and chords are parodies/interpretations of the original songs. You may use it for private study, scholarship, research or language learning purposes only