» » »

*Blink 182*, Stay Together For The Kids Tabs (ver.2)

Artists:  A B C D E F G H I J K L M N O P Q R S T U V W X Y Z # 

Stay Together For The Kids Tabs (ver.2)

*Blink 182* Tabs
 Rating:
4/5 (4 votes)
Stay Together For The Kids lessons Tabs too difficult? Try these video lessons and learn fast
1
                Intro     
E |----------------------------|-----------------------------|
B |----------------------------|-----------------------------|
G |----------------------------|-----------------------------|
D |-----0----7----0----4—--0---|-----0----7-----0-----4--0---|
A |--5----5----5----5----------|--4----4----4-----4----------|
E |----------------------------|-----------------------------|


E |----------------------------|-----------------------------|
B |----------------------------|-----------------------------|
G |----------------------------|-----------------------------|
D |-----0----4----0---5---0----|-----2---4—-5--4--2--0-------|
A |--2----2----2---------------|--0----0---------------------|
E |----------------------------|-----------------------------| (Repeat Once)

	Verse
E |----------------------------|-----------------------------|
B |----------------------------|-----------------------------|
G |--7--7--7--7----------------|-----------------------------|
D |--7--7--7--7---9--9--9--9---|--7--7--7--7--7--7--7--7-----|
A |--5--5--5--5---9--9--9--9---|--7--7--7--7--7--7--7--7-----|
E |---------------7--7--7--7---|--5--5--5--5--5--5--5--5-----| (Repeat Once)
  			            			      (Play on upbeats)


	Chorus (Distortion)
E |----------------------------|-----------------------------|
B |----------------------------|-----------------------------|
G |----------------------------|-----------------------------|
D |---5------------------------|---4-------------------------|
A |---5-(16 times)-------------|---4-(16 times)--------------|
E |---3------------------------|---2-------------------------| (4x)

	Interlude
E |----------------------------|-----------------------------|
B |----------------------------|-----------------------------|
G |---7------------------------|-----------------------------|
D |---7----7----5----7---------|-----(Play around------------|
A |---5----7----5----7---------|-------plucking different----| 
E |--------5----3----5---------|------------------strings)---| (4x)

Enjoy! Have Fun! Blink Rocks! Daniel! ^_^
            
Submit corrections

comments powered by Disqus
↑ Back to top | *Blink 182* Tabs for Stay Together For The Kids. Lyrics for acoustic guitar and electric guitar. 1 Tablatures and chords are parodies/interpretations of the original songs. You may use it for private study, scholarship, research or language learning purposes only