>
 >
Stay Together For The Kids 1

Stay Together For The Kids 1 Guitar Tabs

*Blink 182* - Stay Together For The Kids 1 chords, tabs, tablatures, lyrics

Guitar lessons | Add/correct | Request | Top 50 tabs Artists:  A B C D E F G H I J K L M N O P Q R S T U V W X Y Z 0-9

Stay Together For The Kids 1 Guitar Tabs – *Blink 182*

CD, Sheet music, Poster

Do you like Stay Together For The Kids 1? Share with your friends now
ChordsTabsTabs v2Tabs v3
Intro     
E |----------------------------|-----------------------------|
B |----------------------------|-----------------------------|
G |----------------------------|-----------------------------|
D |-----0----7----0----4--0---|-----0----7-----0-----4--0---|
A |--5----5----5----5----------|--4----4----4-----4----------|
E |----------------------------|-----------------------------|


E |----------------------------|-----------------------------|
B |----------------------------|-----------------------------|
G |----------------------------|-----------------------------|
D |-----0----4----0---5---0----|-----2---4-5--4--2--0-------|
A |--2----2----2---------------|--0----0---------------------|
E |----------------------------|-----------------------------| (Repeat Once)

	Verse
E |----------------------------|-----------------------------|
B |----------------------------|-----------------------------|
G |--7--7--7--7----------------|-----------------------------|
D |--7--7--7--7---9--9--9--9---|--7--7--7--7--7--7--7--7-----|
A |--5--5--5--5---9--9--9--9---|--7--7--7--7--7--7--7--7-----|
E |---------------7--7--7--7---|--5--5--5--5--5--5--5--5-----| (Repeat Once)
  			            			      (Play on upbeats)


	Chorus (Distortion)
E |----------------------------|-----------------------------|
B |----------------------------|-----------------------------|
G |----------------------------|-----------------------------|
D |---5------------------------|---4-------------------------|
A |---5-(16 times)-------------|---4-(16 times)--------------|
E |---3------------------------|---2-------------------------| (4x)

	Interlude
E |----------------------------|-----------------------------|
B |----------------------------|-----------------------------|
G |---7------------------------|-----------------------------|
D |---7----7----5----7---------|-----(Play around------------|
A |---5----7----5----7---------|-------plucking different----| 
E |--------5----3----5---------|------------------strings)---| (4x)

Enjoy! Have Fun! Blink Rocks! Daniel! ^_^





Comments


Popular *Blink 182* tabs & chords
Asthenia 2 Bass Tabs
Disaster Bass Tabs
All Of This 1 Drum Tabs
Adams Song 5 Tabs
Anthem Part Two 5 Tabs
B.J. 1 Tabs
Dont Leave Me 7 Tabs
Dumpweed Intro Tabs
Guitar Smashing Tabs
Peggy Sue 1 Tabs


Song lyrics



↑ Back to top | Tablatures and chords are parodies/interpretations of the original songs. You may use it for private study, scholarship, research or language learning purposes only
© 2014 AZChords.com Contact us | Privacy policy | DMCA | Add/correct tabs | Request tabs | Top 50 tabs