» » »

Stay Together For The Kids Tabs (ver.1)

Artists:  A B C D E F G H I J K L M N O P Q R S T U V W X Y Z # 

Stay Together For The Kids Tabs (ver.1)

*Blink 182*
Rating:
0/5 (0 votes)

Hard to play? Try these video lessons and learn fast.
                Ok, this song was really easy for me to tab, except the intro, and the acoustic guitar in the background of the ending. I can't hear it well enough to tab.

Blink 182
Stay Together for the Kids
Standard Tuning


*Intro* (Clean, possibly very lightly distorted)

E||----------------------------------------------------|
B||----------------------------------------------------|
G||----------------------------------------------------|
D||-----0-----7--0-----4--0-------0-----7--0-----4--0--|
A||--5-----5--------5----------4-----4--------4--------|
E||----------------------------------------------------|   

----------------------------------------------------|
----------------------------------------------------|
----------------------------------------------------|
-----0-----4--0-----5--0-------2-----4--5--4--2--0--|
--2-----2--------2----------0-----0-----------------|
----------------------------------------------------|


*Verse* (Clean)
----------------------|--------------------------|
----------------------|--------------------------|
--------7--------7----|--------7------------7----|
--------7--------7----|--------7------------7----|
--5--5----5-5-5-------|--5-5-5-------5-5-5-------|
----------------------|--------------------------|


                                                  
-----------------------|-------------------------|
-----------------------|-------------------------|
--------7----------7---|--------7-----------7----|
--------7----------7---|--------7-----------7----|
-----------------------|-------------------------|
--7--7-----7-7-7-------|--7-7-7-------7-7-7------|


                                                  
-------------------------|-------------------------|
-------------------------|-------------------------|
--------7-----------7----|--------7-----------7----|
--------7-----------7----|--------7-----------7----|
--0--0-------0-0-0-------|--0-0-0------0-0-0-------|
-------------------------|-------------------------|


                                                  
-------------------------|-------------------------|
-------------------------|-------------------------|
---------7----------7----|--------6----------6-----|
---------9----------9----|--------7----------7-----|
--0--0-------0-0-0-------|--0-0-0-------0-0-0------|
--------------------------|------------------------|

                           
*Chorus* (Heavy Distortion)

E||--------------------------------------------------|
B||--------------------------------------------------|
G||--------------------------------------------------|
D||--5--5--5--5--5--5--5--5--5--5--5--5--5--5--5--5--|
A||--5--5--5--5--5--5--5--5--5--5--5--5--5--5--5--5--|
E||--3--3--3--3--3--3--3--3--3--3--3--3--3--3--3--3--|
                                             
-------------------------------------------|-------|-------|
-------------------------------------------|-------|-------|
-------------------------------------------|-------|-------|
--4--4--4--4--4--4--4--4--4--4--4--4--4--4-|-4--4--|-4--4--|
--5--5--5--5--5--5--5--5--5--5--5--5--5--5-|-5--5--|-5--5--|
--2--2--2--2--2--2--2--2--2--2--2--2--2--2-|-0--2--|-0--0--|
                                             Album^  Live^


*Bridge*    

                                                                   Distorted
E||--------------------------------------------------------------|--------
B||--7~----------------7~---------------7~--------------7~-------|--------
G||--7~------7-----9---7~-----7-----9---7~----7-----9---7~-----7-|-9999999
D||--7~------7-----9---7~-----7-----9---7~----7-----9---7~-----7-|-xxxxxxx
A||----------5-----7----------5-----7---------5-----7----------5-|-7777777
E||--------------------------------------------------------------|--------
Note on the bridge ending: When Tom plays live, he plays that octave. On the album, it's just intentional feedback. If you play a harmonic with a volume swell, you may get a similar effect.




*Post Bridge Lead In* (THIS IS ONLY PLAYED when he plays live. On the album, he just plays the regular chrous)

E||--------------------------------------------------|
B||--------------------------------------------------|
G||--------------------------------------------------|
D||--5~--5--5--5--5--5--5--5--5--5--5--5--5--5--5----|
A||--5~--5--5--5--5--5--5--5--5--5--5--5--5--5--5----|
E||--3~--3--3--3--3--3--3--3--3--3--3--3--3--3--3----|

--------------------------------------------------|
--------------------------------------------------|
-----------------------------------------9--9--9--|
--4--4--4--4--4--4--4--4--4--4--4--4--4--x--x--x--|
--5--5--5--5--5--5--5--5--5--5--5--5--5--7--7--7--|
--2--2--2--2--2--2--2--2--2--2--2--2--2-----------|





ORDER
Intro x2
Verse x2
Chorus x4

Intro x2
Verse x2
Chorus x4

Bridge x1

***Then If you're playing live version***:
Post Bridge lead-in x2
Chorus x4
and then alternate the chorus and post bridge lead in 6 more times, so play each of them three times total

End song on
D|-------|
A|-------|
E|---3~--|

***Or If you're playing the album version***

Chorus x12 and fade out
            
Hard to play? Try these video lessons and learn fast. | Correct




comments powered by Disqus
↑ Back to top | Tablatures and chords are parodies/interpretations of the original songs. You may use it for private study, scholarship, research or language learning purposes only