» » »

*Blink 182*, Shut Up Tabs (ver.3)

Artists:  A B C D E F G H I J K L M N O P Q R S T U V W X Y Z # 

Shut Up Tabs (ver.3)

*Blink 182* Tabs
Rating:
0/5 (0 votes)
Shut Up lessons Tabs too difficult? Try these video lessons and learn fast
                blink 182
shut up
take off your pants and jacket
these are all the parts of the song but i think you 
guys are smart and able to finds them your self
intro 1
e--------------------
b---------------------
g--------------------
d-7-7-7-7-7-7-7-7
a---------------------
e---------------------

intro 2
e---------------------
b---------------------
g----6----6----6---6
d-7----7----7----7--
a-x----x----4----5--
e-5----5-------------

solo (i guess-)
e-------------------------------------
b------------------------------------
g-----6-------6--------6---------6--
d---7---7---7--7----7---7----7---7
a-------------------4--------5-------
e-5-------5--------------------------

pre chorus
e-----------------------
b-----------------------
g--------6--6-6-6--7
d-7-7-7--6--6-6-6--7
a-7-7-7--4--4-4-4--5
e-5-5-5----------------

chorus
e----------------------------------------
b----------------------------------------
g-4-4-4-4-4-4-4-4-7-7-7-7-7-7-7-7
d-4-4-4-4-4-4-4-4-7-7-7-7-7-7-7-7
a-2-2-2-2-2-2-2-2-5-5-5-5-5-5-5-5
e-----------------------------------------

verse
e----------------------------------------
b----------------------------------------
g-----------------6-6-6-6-7-7-7-7
d-7-7-7-7-7-7-7-7-6-6-6-6-7-7-7-7
a-7-7-7-7-7-7-7-7-4-4-4-4-5-5-5-5
e-5-5-5-5-5-5-5-5--------------------


bridge
e----------
b-5--5--5
g-6--6--6
d-7--7--7 x-6
a-0--4--5
e----------

interlude 
e-----------------------------------
b---------------------------------
g-14-14-14-14--13-13-11-11
d-x---x---x---x---x---x--x---x
a-12-12-12-12--11-11--9--9
e----------------------------------n
            
Submit corrections

comments powered by Disqus
↑ Back to top | *Blink 182* Tabs for Shut Up. Lyrics for acoustic guitar and electric guitar. Tablatures and chords are parodies/interpretations of the original songs. You may use it for private study, scholarship, research or language learning purposes only