» » »

Sex With Grandpa Tabs (ver.1)

Artists:  A B C D E F G H I J K L M N O P Q R S T U V W X Y Z # 

Sex With Grandpa Tabs (ver.1)

*Blink 182*
Rating:
0/5 (0 votes)

Hard to play? Try these video lessons and learn fast.
                Dif.: 5

NOTE: This is on a steel string acoustic guitar and finger picked.

Verse
E|--2----0----2----0--------0---------0-----|
B|----3----3----3----3----3----3\2-2----3---|
G|----------------------0-------------------|

Chorus (“He seems like a...”)
B|-3---3---3---3---3---3---3---3---3-----|
G|---0---0---0---0---2---2---2---2---2---|

Fill
E|-3---3---3---3------3---|
B|---2---2---2---2----2---|

End
B|---3----------|
G|---0----------|

Song Structure: -
Uno, Dos, Tres, Cautro
Verse
Verse (w/lyrics)
Chorus
Fill
Verse
Chorus
Fill
End
            
Hard to play? Try these video lessons and learn fast. | Correct




comments powered by Disqus
↑ Back to top | Tablatures and chords are parodies/interpretations of the original songs. You may use it for private study, scholarship, research or language learning purposes only