» » »

*Blink 182*, Secret Track Tabs (ver.1)

Artists:  A B C D E F G H I J K L M N O P Q R S T U V W X Y Z # 

Secret Track Tabs (ver.1)

*Blink 182* Tabs
Rating:
0/5 (0 votes)
Secret Track lessons Tabs too difficult? Try these video lessons and learn fast
                I think this is blink’s best song yet.

Intro

e----------------------------------
b----------------------------------
g----4----2----------4----2--------
d--2---------------2---------------
a----------------------------------
e----------------------------------

strum these chords next

e---------------------------------------------
b---------------------------------------------
g-----------------------------7---------------
d--7------------4-------------7---------------
a--7------------4-------------5---------------
e--5------------2-----------------------------

Verse
strum these chords a couple times

e--------------------------------------
b--------------------------------------
g-------------------9-------7----------
d---7-------4-------9-------7----------
a---7-------4-------7-------5----------
e---5-------2--------------------------

Chorus
strum this

e-------------------------------------
b-------------------------------------
g--------------------7----------------
d---7-----6----4-----7----------------
a---7-----6----4-----5----------------
e---5-----4----2----------------------

this is the interlude/solo

e-----0-------------0----------------0------------------
b-------------2------------2-------------------2--------
g----2-2-----2-2---2-2----2-2------2---2-----2---2------
d-------------------------------0---------0-------------
a-------------------------------------------------------
e-2-------2------2------2-------------------------------

e-----0----------------0-----------0--------------------
b--------------2-------------2----------2--------2---2--
g----2-2------2-2-----2-2---2-2---2-2--2-2------2---2---
d--0-------0-----------------------------------0---0----
a-------------------0------0-----2----2-----------------
e-------------------------------------------------------

thats pretty much hope you like it :)
            
Submit corrections

comments powered by Disqus
↑ Back to top | *Blink 182* Tabs for Secret Track. Lyrics for acoustic guitar and electric guitar. Tablatures and chords are parodies/interpretations of the original songs. You may use it for private study, scholarship, research or language learning purposes only