» » »

*Blink 182*, Peggy Sue Tabs (ver.4)

Artists:  A B C D E F G H I J K L M N O P Q R S T U V W X Y Z # 

Peggy Sue Tabs (ver.4)

*Blink 182* Tabs
 Rating:
4/5 (4 votes)
Peggy Sue lessons Tabs too difficult? Try these video lessons and learn fast
                (Live)
"Peggy Sue" 
                              Live
                         

Intro
e-------0---------0---------------0-----------------------------------
b-2-222---2-2-222---2----3--2-222---2---------------------------------
g-2---------2------------2--2----------9---9--9--9---7---7---7--7-----
d-2---------2------------0--2----------9-9---9--9----7-7---7---7----7-
a-0---------0---------------0----------7-------------5--------------7-
E-------------------------------------------------------------------5-

A5               F#5          D5                     Em Em F#5 F#5 Em
I know what it's like to be alone sitting in your room  
A5            F#5                D5
Listening to all those doubts that your parents have to say to you
A5                      F#5           D5                Em EM F# F# Em
As your head gets all cluttered inside  try to stay awake     (5)(5)
A5               F#5         D5
Everything they say are lies  That's all the sh*t that you
Em Em F#5 F#5 Em
Ever have to take so...

Chorus
D5                   A5
Hold in all your aggressions because you're 
D5             A5            E5     D5               
Grinding your teeth on down to the bottom of your chin
D5                         A5      
It's not easy or so damn pleasing to not laugh
D5        A5             E5             D5
At every word they say as they tell you what to be
D5           A5
You're not alone

(Repeat Intro)
(Verse 2 Same Chords)
A5               F#5          D5                     Em Em F#5 F#5 Em
I know what it's like to be denied at everything you do 
A5            F#5                D5
It's not the same reason why that Makes you change the things that you once knew 
A5                      F#5           D5                Em EM F# F# Em
As your head gets all cluttered inside Give more than you take 
A5               F#5         D5                  
Everything they say are lies That's all the sh*t that you 
Em Em F#5 F#5 Em
Ever have to take so...

Chorus
D5                   A5
Hold in all your aggressions because you're 
D5             A5            E5     D5               
Grinding your teeth on down to the bottom of your chin
D5                         A5      
It's not easy or so damn pleasing to not laugh
D5        A5             E5             D5
At every word they say as they tell you what to be
D5           A5
You're not alone



e-----------------------       
b-----------------------
g-----------------------
d---7-7-7---7--6/7/9----          
a--0-0-0---0------------x4        
E-----------------------          


e-----------------------------
b--10------9---9/10--10-9/12--
g-----9-9----9------9---------
d-----------------------------
a-----------------------------x2
E-----------------------------

Bass Solo



You say you want to take off your shoes   
And Walk barefoot down the street 
Just to be the things that you can be
Just live for one more week GO!

Bridge (Bridge also played during bridge lyrics 2nd time) 
e------------------------
b------------------------
g6/7/9---6/7/9--9999/6666
d------------------------ x4(last 2 times during lyrics)
a4/5/7---4/5/7--7777/4444
e------------------------


Bridge With Lyrics

e-------------
b-------------
g6/7/9---6/7/9(play so goes for whole sentence)
d-------------
a4/5/7---4/5/7
e-------------
You say you want to take off your shoes   


e---------
b---------
g9999/6666
d--------- (play so goes for whole sentence)
a7777/4444
E---------
And Walk barefoot down the street 

e-------------
b-------------
g6/7/9---6/7/9(play so goes for whole sentence)
d-------------
a4/5/7---4/5/7
e-------------
Just to be the things that you can be

e---------
b---------
g9999/6666
d--------- (play so goes for whole sentence)
a7777/4444
E---------
Just live for one more week 


Chorus
D5                   A5
Hold in all your aggressions because you're 
D5             A5            E5     D5               
Grinding your teeth on down to the bottom of your chin
D5                         A5      
It's not easy or so damn pleasing to not laugh
D5        A5             E5             D5
At every word they say as they tell you what to be
D5           A5
You're not alone






Chord Chart
e----------------
b----------------
g-------7-----9--
d-7--4--7--2--9--
a-7--4--5--2--7--
e-5--2-----0-----
 A5 F#5 D5 Em E5




listen to the song to get the timing
and even the timing for the bridge is hard but u'll get once u play to the song

later ecca
            
Submit corrections

comments powered by Disqus
↑ Back to top | *Blink 182* Tabs for Peggy Sue. Lyrics for acoustic guitar and electric guitar. Tablatures and chords are parodies/interpretations of the original songs. You may use it for private study, scholarship, research or language learning purposes only