>
 >
Online Songs 2

Online Songs 2 Guitar Tabs

*Blink 182* - Online Songs 2 chords, tabs, tablatures, lyrics

Guitar lessons | Add/correct | Request | Top 50 tabs Artists:  A B C D E F G H I J K L M N O P Q R S T U V W X Y Z 0-9

Online Songs 2 Guitar Tabs – *Blink 182*

CD, Sheet music, Poster

Do you like Online Songs 2? Share with your friends now
TabsTabs v2Tabs v3
This is Blink 182-Online Songs for guitar and bass. 
Now im not totally sure on this cause this is actually my first tab, not like the other guys who just say that cause they suck.well here it is.enjoy 

Intro(only Mark playin and singing... 
G\---------------------------------------------------- 
D/---------------------------------------------------- 
A\----------------------------5-5-5-5-5-5--7-7-7-7-7-7 (X2 then guitar comes 
E/---5-5-5-5-5-5--7-7-7-7-7-7------------------------- in bass play this x2                                                              after) 
         Josie, you're my source of most frustration 
G\---------------------------------------------------- 
D/---------------------------------------------------- 
A\----------------------------5-5-5-5-5-5--7-7-7-7-7-7 
E/---5-5-5-5-5-5--7-7-7-7-7-7-------------------------  
  Forget when I don't meet expectations 
   ...then guitar comes in) 
E\------------------------------------------------------------------- 
B/------------------------------------------------------------------- 
G\------------------------------------------------------------------- 
D/----------------------X3--(then on 4th)---------------------------- 
A\---4-4-7-4----5-5-5-4---------------------4-4-7-4-----5-5-5-5------ 
E/----------------------------------------------------------------5>- 

everything you wished came true, in the end we all blamed you 
even though as they all know you, weren't the only one, two, three, four 

Interlude part (this is what im not too sure on) 
E\----------------------------------------------- 
B/----------------------------------------------- 
G\------------6-6-6-6-6-----------6-6-6-6-6------ 
D/--7-7-7-7-7-6-6-6-6-6-7-7-7-7-7-6-6-6-6-6--X2-- 
A\--7-7-7-7-7-4-4-4-4-4-7-7-7-7-7-4-4-4-4-4------ 
E/--5-5-5-5-5-----------5-5-5-5-5---------------- 

Verse (no guitar) 
G\----------------------------------------------------------- 
D/-----------------------------4-4-4-4-2-2-2-2--------------- 
A\---------------4-4-4-4-4-4-4------------------------------- 
E/-5-5-5-5-5-5-5-------------------------------5-5-5-5-5-5-5- 
1:Why do you still keep it around when you know it brings me down 
I'm hating everything and I know that you dated other guys 
but I got to wonder why you'd leave it out for me 
2:Why am I still hanging around when I know it brings me down 
I'm hating everything and you are getting rides home in his car 
you're making out in his front yard I'm hating everything 
3:And if we can have another day I've got so much left to say 
I'd tell you everything and I'll laugh when I think about the past 
when I see you after class you're hating everything 

Chorus 
E\-------------------------------------------------- 
B/-------------------------------------------------- 
G\-------------7-7-7-7-7-7-9-9-9-9-9-9-7-7-7-7-7-7--  
D/-7-7-7-7-7-7-7-7-7-7-7-7-9-9-9-9-9-9-7-7-7-7-7-7--  
A\-7-7-7-7-7-7-5-5-5-5-5-5-7-7-7-7-7-7-5-5-5-5-5-5-- 
E/-5-5-5-5-5-5-------------------------------------- 
Please don't remind me put your past behind me 
it shines so bright it blinds me I wish that this would end 
and I am not fine last night I saw you online 
your screen name used to be mine why can't we just pretend 

Bridge 
E\----------------------------------------- 
B/----------------------------------------- 
G\-----7-7-----------------9-9-9-9-9-9-9-9- 
D/-4-4-7-7-7-7-7-7-7-7-7-7-9-9-9-9-9-9-9-9- 
A\-4-4-5-5-7-7-7-7-7-7-7-7-7-7-7-7-7-7-7-7- 
E/-2-2-----5-5-5-5-5-5-5-5----------------- 
E\----------------------------------------------------------------- 
B/----------------------------------------------------------------- 
G\-----------------7-7-7-7-7-7-7-7-----------------9-9-9-9-9-9-9-9- 
D/-4-4-4-4-4-4-4-4-7-7-7-7-7-7-7-7-7-7-7-7-7-7-7-7-9-9-9-9-9-9-9-9- 
A\-4-4-4-4-4-4-4-4-5-5-5-5-5-5-5-5-7-7-7-7-7-7-7-7-7-7-7-7-7-7-7-7- 
E/-2-2-2-2-2-2-2-2-----------------5-5-5-5-5-5-5-5----------------- 

Ending 
E\----------- 
B/----------- 
G\-------6-4- 
D/-7-7-7-6-4- 
A\-7-7-7-4-2- 
E/-5-5-5----- 

Order 
-intro 
-interlude 
-verse 
-interlude 
-verse 
-chorus 
-chorus 
-bridge 
-chorus 
-chorus 
-ending





Comments


Popular *Blink 182* tabs & chords
All The Small Things 2 Bass Tabs
Apple Shampoo 2 Bass Tabs
Voyeur Chords
Adams Song 9 Tabs
Always 3 Tabs
Anthem Part Two 8 Tabs
Blow Job Tabs
Josie 1 Tabs
Shut Up Intro Tabs
Song From Blink182 Dot Com Tabs


Song lyrics



↑ Back to top | Tablatures and chords are parodies/interpretations of the original songs. You may use it for private study, scholarship, research or language learning purposes only
© 2014 AZChords.com Contact us | Privacy policy | DMCA | Add/correct tabs | Request tabs | Top 50 tabs