>
 >
Not Now 2

Not Now 2 Guitar Tabs

*Blink 182* - Not Now 2 chords, tabs, tablatures, lyrics

Guitar lessons | Add/correct | Request | Top 50 tabs Artists:  A B C D E F G H I J K L M N O P Q R S T U V W X Y Z 0-9

Not Now 2 Guitar Tabs – *Blink 182*

CD, Sheet music, Poster

Do you like Not Now 2? Share with your friends now
TabsTabs v2Tabs v3
Standard tuning (EADGBe)
/=slide up
\=slide down
pm= palm mute
x=muted string
<>=natural harmonics
()=ghost note---dont play!
^=accented note
~=hold note
Intro part 1:
e|---------------------------------------------|
B|---------------------------------------------|
G|-11-11-11-11\7--7-7-7--7-9-9/(11)--\7-7/9----|
D|-x--x--x--x-\x--x-x-x--x-x-x/(x-)--\x-x/x----|
A|-9--9--9--9-\5--5-5-5--5-7-7/(9-)--\5-5/7----| x4
E|---------------------------------------------|

PICK SCRAPE

Intro part 2: 
e|---------------------------------------|
B|---------------------------------------|
G|-4444/7777-----------------------------|
D|-4444/5555--7777775555555555-----------|
A|-2222/5555--5777775555444444-----------| x4
E|------------5555533332222222-----------|

Verse: the harmonics are played on a keyboard, 
but these are the notes transcribed for guitar
e|---------|	|------<12>~--------------|
B|---------|	|-------------------------|
G|-7-------|	|-<7>~--------------<5>~--|
D|-x--ring-|	|-------------<9>~--------|
A|-5-------|x1-------------------------| x2
E|---------|	|-------------------------|

pre-chours:
e|----------------------------------------|
B|----------------------------------------|
G|-7--7-7-7-7-7-7-7-7--9--9-9-9-9-9-9-9-9-|
D|-7--7-7-7-7-7-7-7-7--9--9-9-9-9-9-9-9-9-|  cont...
A|-5--5-5-5-5-5-5-5-5--7--7-7-7-7-7-7-7-7-| 
E|----------------------------------------|
pm    ................   ................

e|----------------------------------------|
B|----------------------------------------|
G|----------------------------------------|
D|-5--5-5-5-5-5-5-5-5--5--5-5-5-5-5-5-5-5-|
A|-4--4-4-4-4-4-4-4-4--5--5-5-5-5-5-5-5-5-| x2
E|-2--2-2-2-2-2-2-2-2--3--3-3-3-3-3-3-3-3-|
pm    ...............    ...............

Chorus: 
e|--------------------------------------------------------------|
B|--------------------------------------------------------------|
G|-7-7-7-7-7-7-7-7-7-7-7-7-7-7-7-7-7-7-7-7-7-7-7-7-7-7-7-7--7---|
D|-x-x-x-x-x-x-x-x-x-x-x-x-x-x-x-x-0-0-0-0-0-0-0-0-0-0-0-0--0---|
A|-5-5-5-5-5-5-5-5-4-4-4-4-4-4-4-4-x-x-x-x-x-x-x-x-x-x-x-x--x---| x1
E|---------------------------------7-7-7-7-7-7-7-7-5-5-5-5--3---|

Break: Play Intro part 2 twice 

Play Verse Again

Chorus:
e|------------------------------------------------------------------|
B|------------------------------------------------------------------|
G|-7-7-7-7-7-7-7-7-7-7-7-7-7-7-7-7-7-7-7-7-7-7-7-7-7-7-7-7-7-7-7-7--|
D|-x-x-x-x-x-x-x-x-x-x-x-x-x-x-x-x-0-0-0-0-0-0-0-0-0-0-0-0-0-0-0-0--|
A|-5-5-5-5-5-5-5-5-4-4-4-4-4-4-4-4-x-x-x-x-x-x-x-x-x-x-x-x-x-x-x-x--| x2
E|---------------------------------7-7-7-7-7-7-7-7-5-5-5-5-3-3-3-3--|


Bridge part 1:
e|----------|
B|----------|
G|-7--------|   then bass solo
D|-x--ring--|
A|-5--------|
E|----------|

Then repeat the intro twice

Then Chorus twice ( so play it four times):
e|------------------------------------------------------------------|
B|------------------------------------------------------------------|
G|-7-7-7-7-7-7-7-7-7-7-7-7-7-7-7-7-7-7-7-7-7-7-7-7-7-7-7-7-7-7-7-7--|
D|-x-x-x-x-x-x-x-x-x-x-x-x-x-x-x-x-0-0-0-0-0-0-0-0-0-0-0-0-0-0-0-0--|
A|-5-5-5-5-5-5-5-5-4-4-4-4-4-4-4-4-x-x-x-x-x-x-x-x-x-x-x-x-x-x-x-x--| x2
E|---------------------------------7-7-7-7-7-7-7-7-5-5-5-5-3-3-3-3--|

Outro: 
e|---------------------------------------|
B|---------------------------------------|
G|-4444/7777-----------------------------|
D|-4444/7777--777775555555555------------|
A|-2222/5555--777775555444444------------| x4
E|------------555553333222222------------|

End on:
e|----------------
B|----------------
G|-4--7----------
D|-4--7--7-------
A|-2--5--7-------
E|-------5-------





Comments


Popular *Blink 182* tabs & chords
Anthem Part Two 4 Bass Tabs
Ben Wah Balls Bass Tabs
Feeling This 9 Bass Tabs
All The Small Things 5 Chords
Feeling This Drum Tabs
Anthem 1 Tabs
Ben Wah Balls Intro Tabs
Dammit 5 Tabs
Every Time I Look For You 1 Tabs
Pathetic 1 Tabs


Song lyrics



↑ Back to top | Tablatures and chords are parodies/interpretations of the original songs. You may use it for private study, scholarship, research or language learning purposes only
© 2014 AZChords.com Contact us | Privacy policy | DMCA | Add/correct tabs | Request tabs | Top 50 tabs