» » »

M N Ms Tabs (ver.1)

Artists:  A B C D E F G H I J K L M N O P Q R S T U V W X Y Z # 

M N Ms Tabs (ver.1)

*Blink 182*
Rating:
0/5 (0 votes)

Hard to play? Try these video lessons and learn fast.
                "(1)
M&M's
Blink 182

intro
E|-0--4/0--5/0--7-5-4-5/0------0--2/0--4/0--5-4-2-0--------|
B|---------------------------------------------------------|
G|---------------------------------------------------------|
D|---------------------------------------------------------|
A|---------------------------------------------------------|
E|---------------------------------------------------------|

verse
E|-----------------------------------------------------------------------|
B|-----------------------------------------------------------------------|
G|---9---9---9---9----9---9---9---9----9---9---9---9----9---9---9---9----|
D|-----------------------------------6---6---6---6----7---7---7---7------|
A|-7---7---7---7----9---9---9---9----^---^---^---^----^---^---^---^------|
E|-^---^---^---^----^---^---^---^----------------------------------------|
^=palm mute

pre-chorus
E|--------------------------------------------------|
B|--------------------------------------------------|
G|-999999999999999999999999999----------------------|
D|-xxxxxxxxxxxxxxxxxxxxxxxxxxx----------------------|
A|-777777777777777777777777777----9-7-9-7-6---------|
E|--------------------------------------------------|

chorus
E|------------------------------------------|
B|------------------------------------------|
G|-----------22222222-----------4444444-----|
D|-4444444---22222222--2222222--4444444-----|
A|-4444444---00000000--2222222--2222222-----|
E|-2222222-------------0000000--------------|

interlude part
E|-----------------------|
B|-----------------------|
G|-9----4----6----2------|
D|-9----4----6----2------|
A|-7----2----4----0------|
E|-----------------------|
let these ring
"            
Hard to play? Try these video lessons and learn fast. | Correct




comments powered by Disqus
↑ Back to top | Tablatures and chords are parodies/interpretations of the original songs. You may use it for private study, scholarship, research or language learning purposes only