» » »

*Blink 182*, Mark Tom And Travis Show Bass tabs (ver.1)

Artists:  A B C D E F G H I J K L M N O P Q R S T U V W X Y Z # 

Mark Tom And Travis Show Bass tabs (ver.1)

*Blink 182* Tabs
 Rating:
4/5 (4 votes)
Mark Tom And Travis Show lessons Tabs too difficult? Try these video lessons and learn fast
                Blink 182
          
          

          

          
           Riff 1 (bridge & verse)
          G:-------------------------------------
          D:-------------------------------------
          A:-33333333----------------------------
          E:----------33333333-55555555-11111111-
          
           Riff 2 (Chorus)
      G:---------------------------------------------------------------------
          D:---------------------------------------------------------------------
          A:-3333333333333333----------------------------------------------------
          E:------------------3333333333333333-5555555555555555-1111111111111111-
          
          G:----------------------------------------------------------------------
          D:----------------------------------------------------------------------
          A:-3333333333333333-----------------------------------------------------
          E:------------------3333333333333333-5555555555555555-11111111-33333333-
          
           Riff 3 (Interlude)
          G:----------------------------------
          D:----------------------------------
          A:-3~-------/5~-------/7~-------/8~-
          E:----------------------------------
          
          *ORDER*
          -------
          (guitar intro)
          Riff 1 x 12
          Riff 2 x 1
          Riff 1 x 6
          Riff 2 x 1
          Riff 3 x 2
          Riff 3 x 4
          End with A:-3~-




Man Overboard
Blink 182


intro
G---------7---5--4---------7---5---4---------7---5----4---5---4---5---4--
D----5-5---5---5--5-5-5---5---5---5-5-5----5---5----5---5---5---5-----
A-----------------------------------------------------------------------------------
E-----------------------------------------------------------------------


Intro part 2 do the same thing (so sorry its over)



G----------------------------------------------------------------------------------------
D----------------------------------------------------------------------------------------
A----------------------------------------------------------------------3-3-3-3-3-3-3-3
E--3-3-3-3-3-3-3-3-3-3-3-3-3-3-3---0-0-0-0-0-0-0-0------------------------


G--------------------------------------------------------------------------------
D--------------------------------------------------------------------------------
A-----------------5-5-5--------------------3-3--------------------------------
E--3-3-3-333-----------0-0-0-0000---------------------------------------




G----------------------------------------------------------------------------
D--5-5-5-5-5-5-5-5------7-7-7-7-7-7-7-7---------------------------
A-----------------------------------------------------3-3-3-3-3-3-3-3---
E-----------------------------------------------------------------------------


this is the whole mark tom and travis show some songs are missing and some are probably wrong but o well
            
Submit corrections

comments powered by Disqus
↑ Back to top | *Blink 182* Bass for Mark Tom And Travis Show. Lyrics for acoustic guitar and electric guitar. Tablatures and chords are parodies/interpretations of the original songs. You may use it for private study, scholarship, research or language learning purposes only