>
 >
Lemmings

Lemmings Guitar Tabs

*Blink 182* - Lemmings chords, tabs, tablatures, lyrics

Guitar lessons | Add/correct | Request | Top 50 tabs Artists:  A B C D E F G H I J K L M N O P Q R S T U V W X Y Z 0-9

Lemmings Guitar Tabs – *Blink 182*

CD, Sheet music, Poster

Do you like Lemmings? Share with your friends now
Tabs


                               LEMMINGS


Intro & Verse - play 1 time
------------------------|
------------------------|
------------------------|
-----4---1-------2---1--|
-2-----------2----------|
------------------------|


Intro 2: 2x
------------------------------------------------------------|
------------------------------------------------------------|
-4-4------------4-4-----------------------------------------|
-4-4--2--2-2-2--4-4--6--6-6-6--4-4--6--6-6-6--2-2--2-2-2--2-|
-2-2--2--2-2-2--2-2--6--6-6-6--4-4--6--6-6-6--2-2--2-2-2--2-|
------0--0-0-0-------4--4-4-4--2-2--4--4-4-4--0-0--0-0-0--0-|


Verse: repeat 1st half 3x, then 2nd half 1 time and the repeat again
once
------------------------|------------------------------|
------------------------|------------------------------|
------------------------|----------------9-9--9--9-9-9-|
-----4---1-------2---1--|-2-2--2-2-2--2--9-9--9--9-9-9-|
-2----------2-----------|-2-2--2-2-2--2--7-7--7--7-7-7-|
------------------------|-0-0--0-0-0--0----------------|


Chorus - gtr. 1: 2 times
------------------------------------------------------------|
------------------------------------------------------------|
------------------------------------------------------------|
-4-4--4-4-4--4--6-6--6-6-6--6--2-2--2-2-2--2--2-2--2-2-2--2-|
-4-4--4-4-4--4--6-6--6-6-6--6--2-2--2-2-2--2--2-2--2-2-2--2-|
-2-2--2-2-2--2--4-4--4-4-4--4--0-0--0-0-0--0--0-0--0-0-0--0-|

Chorus - gtr. 2: repeat 2x
-----------------------------------------------|
------4-----5-------4-----5--------4-----5-----|
-4--------------4-------------4--------------4-|
-----------------------------------------------|
-----------------------------------------------|
-----------------------------------------------|

Key: P.M.: Plam Mute (each dot is when you are supposed to p.m. it

Solo 1: 2x
----------------------------------------------|
---------------------------------------5---4--|
--4-----3-----4----4-----3---4-----------4----|
----4-4---4-4---4----4-4---4----2--2-2--------|
--------------------------------2--2-2--------|
--------------------------------0--0-0--------|
  PM...   ...   .    ...   .       ...   .         


Solo 2: 2x
------------------------------------------------------------|
------------------------------------------------------------|
-4-4--4--4-4-4--6-6--6--6-6-6-----------------9-9--9--9-9-9-|
-4-4--4--4-4-4--6-6--6--6-6-6--6-6--6--6-6-6--9-9--9--9-9-9-|
-2-2--2--2-2-2--4-4--4--4-4-4--6-6--6--6-6-6--7-7--7--7-7-7-|
-------------------------------4-4--4--4-4-4----------------|


Outro 1: 2x
------------------------------------------------------------|
------------------------------------------------------------|
-4-4--4--4-4-4--6-6--6--6-6-6-----------------9-9--9--9-9-9-|
-------------------------------6-6--6--6-6-6----------------|
-2-2--2--2-2-2--4-4--4--4-4-4-----------------7-7--7--7-7-7-|
-------------------------------4-4--4--4-4-4----------------|


Chorus 2 - Gtr. 2: 2x
------------------------------------------------------------|
------4-----5--------4-----5--------4-----5-----------------|
-4--------------4--------------4--------------4-------------|
------------------------------------------------------------|
------------------------------------------------------------|
------------------------------------------------------------|


Outro 2: 1 time
---------------------|
---------------------|
-4---4---4------4----|
-4---4---4------4----|
-2---2---2------2----|

Intro: 1 time
Intro 2: 2x
Verse: repeat 1st half 3x, then 2nd half 1 time then repeat once
Chorus Gtr. 1 & Gtr. 2: 2x
Intro 2: 2x
Verse: repeat 1st half 3x, then 2nd half 1 time then repeat once
Chorus Gtr. 1 & Gtr. 2: 2x
verse: repeat 1st half 3x, then 2nd half 1 time then repeat once
Chorus Gtr. 1 & Gtr. 2: 2x
Solo 1: 2x
Solo 2: 2x
outro 1: 2x
Chorus - Gtr. 2: 2x
outro 2: 1 time





Comments


Popular *Blink 182* tabs & chords
All The Small Things 7 Bass Tabs
Always Bass Tabs
Easy Target Bass Tabs
Go 1 Bass Tabs
*** A Dog 1 Tabs
Ben Wah Balls 3 Tabs
Dancing With Myself Tabs
Degenerate Tabs
Degenerate 2 Tabs
Untitled 2 Tabs


Song lyrics



↑ Back to top | Tablatures and chords are parodies/interpretations of the original songs. You may use it for private study, scholarship, research or language learning purposes only
© 2014 AZChords.com Contact us | Privacy policy | DMCA | Add/correct tabs | Request tabs | Top 50 tabs