» » »

Lemming Tabs (ver.2)

Artists:  A B C D E F G H I J K L M N O P Q R S T U V W X Y Z # 

Lemming Tabs (ver.2)

*Blink 182*
Rating:
0/5 (0 votes)

Hard to play? Try these video lessons and learn fast.
                intro
----------------   --------------------------------------------------
----------------   --------------------------------------------------
----------------   --------------------------------------------------
----4--1----2--1   --44--4------44-4---------------------------------
--2------2------   --22--222--2-22-2--66--644--466--622-222----------
----------------   -------00--0-------44--422--244--400-000----------

3x
----------------   --------------------------------------------------
----------------   --------------------------------------------------
----------------   --------------------------------------------------
----4--1----2--1   -----------99999999-------------------------------
--2------2------   -22222222--77777777-------------------------------
----------------   -00000000-----------------------------------------

3x
----------------   --------------------------------------------------
----------------   --------------------------------------------------
----------------   --------------------------------------------------
----4--1----2--1   -----------99999999-------------------------------
--2------2------   -22222222--77777777-------------------------------
----------------   -00000000-----------------------------------------


--------------------------------------------------
--------------------------------------------------
--------------------------------------------------
--------------------------------------------------
-44-4--444-66-6-66622-2-22222-2-222---------------
-22-2--222-44-4-44400-0-00000-0-000---------------
            
Hard to play? Try these video lessons and learn fast. | Correct




comments powered by Disqus
↑ Back to top | Tablatures and chords are parodies/interpretations of the original songs. You may use it for private study, scholarship, research or language learning purposes only