» » »

*Blink 182*, Josie Tabs (ver.2)

Artists:  A B C D E F G H I J K L M N O P Q R S T U V W X Y Z # 

Josie Tabs (ver.2)

*Blink 182* Tabs
 Rating:
4/5 (4 votes)
Josie lessons Tabs too difficult? Try these video lessons and learn fast
                Fun song!  I simplified it, and I goes straight through.  So I decided NOT to use power chords

INTRO:
-2----------------------------------------------------------------------------
 Let ring, play 13x                                                 

VERSE:
-2-2-2-2-2-2-2-2-2-2-2--------------------------------------------------------
----------------------2-2-2-2-2-2-2-0-0-0-0-0-0-0-0-0-0-0-0-0-0---------------
 Yeah, my girlfriend takes me home when I'm too drunk to drive                

-2-2-2-2-2-2-2-2-2-4-4-4-4-4-7-7-7-7-7-7-7-7-7-7-7-7-7-7-7-7-7-7--------------
 And, she doesn't get all jealous when I hang out with the guys               

-2-2-2-2-2-2-2-2------------7-x-7-x-7-x-7-x-7---------------------------------
----------------2-2-2-2-2-2---------------------------------------------------
 She laughs at my dumb jokes when no one does                                 

-2-2-2-2-2-2-2-2-2-2-4-4-4-4-4-4-7-7-7-7-7-7-7-7-7-7-7------------------------
 She brings me mexican food from Sombrero just because                        

-2----------------------------------------------------------------------------
 Yeah just because                                                            

-2-2-2-2-2-2-2-2-2-2----------------------------------------------------------
--------------------2-2-2-2-2-2-0-0-0-0-0-------------------------------------
 Yeah my girlfriend likes U.L. and D.H.C.                                     

-2-2-2-2-2-2-2-4-4-4-4-4-4-4-4-4-7-7-7-7-7-7-7-7-7-7-7-7-7-7-7-7--------------
 And she's so smart and independent, I don't think she needs me               

-2-2-2-2-2-2-2----------------------------------------------------------------
---------------2-2-2-2-2-2-0-x-0-x-0-x-0--------------------------------------
 Quite half as much as I know I need her                                      

-2-2-2-2-2-2-2-2-2-4-4-4-7-7-7-7-7-7-7-7-7-7-7-7-7-7-7------------------------
 I wonder why theres not another guy that she'd prefer                        

---------------------7-7-7-7-7-7-7-7-7-7-2-2-2-2-2-2-2-2-2-2-2-2--------------
-2-2-2-2-2-2-2-2-2-2----------------------------------------------------------
 And when I feel like giving up, like my world is falling down,               

PRE-CHORUS:
------------------4-4-4-4-4-4-4-4-4-4-4-4-4-4-4-4-4---------------------------
-2-2-2-2-2-2-2-2-2------------------------------------------------------------
 I show up at 3am, she's still up watching vaction                            

-7-7-7-7-7-7-7-7-7-7-7-7-7-7-7-7-7-7-7-7-7-7-7-7-7-7-7-7-7-7-7-7-7-7-7-7------
 And I see her pretty face, it takes me away to a better place and.....       

CHORUS: 2x
-2-2-2-2-2-2-2-2-2------------------------------------------------------------
------------------2-2-2-2-2-2-0-0-0-0-0-0-0-0-0-0-0-0-0-0-0-0-0-0-0-----------
 I know that everything, know that everything, know that everything           

-4-4-4-4-4-4-2-2-2-2-2-2-2-2--------------------------------------------------
 Everything's gonna be fine                                                   

VERSE:
-2-2-2-2-2-2-2-2-2------------------------------------------------------------
------------------2-2-2-2-2-2-2-2-0-0-0-0-0-0-0-0-0-0-------------------------
 And my girlfriend takes collect calls from the road                          

-2-2-2-2-2-2-2-2-2-4-4-4-4-4-7-7-7-7-7-7-7-7-7-7-7-7-7-7-7-7------------------
 And it doesn't seem to matter that I'm lacking in the bulge                  

-2-2-2-2-2-2-2----------------------------------------------------------------
--------------2-2-2-2-2-2-0-x-0-x-0-x-0-x-0-x-0-------------------------------
 She laughs at my dumb jokes when no one does                                 

-2-2-2-2-2-2-2-2-2-2-4-4-4-4-4-4-4-4-7-7-7-7-7-7-7-7-7------------------------
 She brings me mexican food from Sombrero just because                        

PRE-CHORUS
-----------------------------------------2-2-2-2-2-2-2-2-2-2-2-2--------------
-2-2-2-2-2-2-2-2-2-0-0-0-0-0-0-0-0-0-0-0--------------------------------------
 And when I feel like giving up, like my world is falling down                

------------------4-4-4-4-4-4-4-4-4-4-4-4-4-4-4-4-4---------------------------
-2-2-2-2-2-2-2-2-2------------------------------------------------------------
 I show up at 3am, she's still up watching Vacation                           

-0-0-0-0-0-0-0-0-0-0-0-0-0-0-0-0-0-0-0-0-0-0-0-0-0-0-0-0-0-0-0-0-0-0-0--------
 And I see her pretty face, it takes me away to a better place and....        

CHORUS: 4x
-2-2-2-2-2-2-2-2-2------------------------------------------------------------
------------------2-2-2-2-2-2-2-0-0-0-0-0-0-0-0-0-0-0-0-0-0-0-0-0-0-----------
 I know that everything, know that everything, know that everything           

-4-4-4-4-4-4-2-2-2-2-2-2-2----------------------------------------------------
 Everything's gonna be fine                                                   

BRIDGE:
-2----------------------------------------------------------------------------
Play 8x and let ring                                                 

CHORUS: 4x
-2-2-2-2-2-2-2-2-2------------------------------------------------------------
------------------2-2-2-2-2-2-2-2-0-0-0-0-0-0-0-0-0-0-0-0-0-0-0-0-0-----------
 I know that everything, know that everything, know that everything           

-4-4-4-4-4-4-4-2-2-2-2-2-2-2--------------------------------------------------
 Everything's gonna be fine                                                   

OUTRO:
-2----------------------------------------------------------------------------
            
Submit corrections

comments powered by Disqus
↑ Back to top | *Blink 182* Tabs for Josie. Lyrics for acoustic guitar and electric guitar. Tablatures and chords are parodies/interpretations of the original songs. You may use it for private study, scholarship, research or language learning purposes only