» » »

I Feel It Tabs (ver.1)

Artists:  A B C D E F G H I J K L M N O P Q R S T U V W X Y Z # 

I Feel It Tabs (ver.1)

*Blink 182*
Rating:
0/5 (0 votes)

Tabs too difficult? Try these video lessons and learn fast.
                Blink 182 - I'm Feeling This


Intro
|----------------------------------------------------------------|
|----------------------------------------------------------------|
|----------------------------------------------------------------|
|--------------------------------------------6-6-------------6-6-|
|--------------------------------977-777-7779----977-777-7779----|
|----------------------------------------------------------------|
verse                                                             
|----------------------------------------------------------------|
|----------------------------------------------------------------|
|----------------------------------------------------------------| X2
|------------6-6-------------6-6-------------6-6-------------6-6-|
|977-777-7779----977-777-7779----977-777-7779----977-777-7779----|
|----------------------------------------------------------------|

chorus                        
|----------------------------------------------------------------|
|----------------------------------------------------------------| Bass
|77777777------------------------77777777------------------------|<----
|--------777777779999999955555555--------777777779999999955555555|

|----------------------------------------------------------------|
|----------------------------------------------------------------|
|--------------------------------99------------------------------|
|--------------------------------99------------------------------|
|--------------------------------77------------------------------|
|--------------------------------00------------------------------|

|----------------|
|----------------|
|----------------|
|--------66667777|
|77779999--------|
|----------------|
verse
|----------------------------------------------------------------|
|----------------------------------------------------------------|
|----------------------------------------------------------------| X2
|------------6-6-------------6-6-------------6-6-------------6-6-|
|977-777-7779----977-777-7779----977-777-7779----977-777-7779----|
|----------------------------------------------------------------|

chorus
|----------------------------------------------------------------|
|----------------------------------------------------------------| Bass
|77777777------------------------77777777------------------------|<----
|--------777777779999999955555555--------777777779999999955555555|

|----------------------------------------------------------------|
|----------------------------------------------------------------|
|--------------------------------99------------------------------|
|--------------------------------99------------------------------|
|--------------------------------77------------------------------|
|--------------------------------00------------------------------|

Mark and Tom's solo parts 
|----------------------------------------------------------------|
|----------------------------------------------------------------|
|----------------------------------------------------------------|
|----------------------------------------------------------------|
|----------------------------------------------------------------|
|----------------------------------------------------------------|

|----------------------------------------------------------------|
|----------------------------------------------------------------|
|9-9-9-9-------------------------9-9-9-9-------------------------|
|9-9-9-9-9-9-9-9-111111117-7-7-7-9-9-9-9-9-9-9-9-111111117-7-7-7-|
|7-7-7-7-9-9-9-9-111111117-7-7-7-7-7-7-7-9-9-9-9-111111117-7-7-7-|
|--------7-7-7-7-9-9-9-9-5-5-5-5---------7-7-7-7-9-9-9-9-5-5-5-5-|
<<<<<<<<<<<<<<<<<<<<<<<<<<Palm Mute>>>>>>>>>>>>>>>>>>>>>>>>>>>>>>>
chorus
|----------------------------------------------------------------|
|----------------------------------------------------------------|
|9-9-9-9-------------------------9-9-9-9-------------------------| X4
|9-9-9-9-9-9-9-9-111111117-7-7-7-9-9-9-9-9-9-9-9-111111117-7-7-7-|
|7-7-7-7-9-9-9-9-111111117-7-7-7-7-7-7-7-9-9-9-9-111111117-7-7-7-|
|--------7-7-7-7-9-9-9-9-5-5-5-5---------7-7-7-7-9-9-9-9-5-5-5-5-|

fade out (outro)
|----------------------------------------------------------------|
|----------------------------------------------------------------|
|9-9-9-9-------------------------9-9-9-9-------------------------|
|9-9-9-9-9-9-9-9-111111117-7-7-7-9-9-9-9-9-9-9-9-111111117-7-7-7-|
|7-7-7-7-9-9-9-9-111111117-7-7-7-7-7-7-7-9-9-9-9-111111117-7-7-7-|
|--------7-7-7-7-9-9-9-9-5-5-5-5---------7-7-7-7-9-9-9-9-5-5-5-5-|


This is a very pro yet easy song to learn.
Im pretty sure these are right, but durring
the chorus the one parts looks as if its 
9-1-1, but its really 9-11-11. I left the bass
in, in some spots to help show where to play.
            
Tabs too difficult? Try these video lessons and learn fast.




comments powered by Disqus
↑ Back to top | Tablatures and chords are parodies/interpretations of the original songs. You may use it for private study, scholarship, research or language learning purposes only