» » »

Happy Holiday You Bastard Tabs (ver.4)

Artists:  A B C D E F G H I J K L M N O P Q R S T U V W X Y Z # 

Happy Holiday You Bastard Tabs (ver.4)

*Blink 182*
Rating:
0/5 (0 votes)

Hard to play? Try these video lessons and learn fast.
                This is a easy easy easy song if u cant play this quit playing the guitar!

STANDARD TUNING !!!

-|----------------------------------------------------------------------------
-|----------------------------------------------------------------------------
-|-4--4--4--4------------4--4--4--4-------------------------------------------
-|-4--4--4--4---4--4--4--4--4--4--4---4--4--4--4------------------------------
-|-2--2--2--2---4--4--4--2--2--2--2---4--4--4--4------------------------------
-|--------------2--2--2---------------2--2--2--2------------------------------
   It's christmas eve..                                                       

-|----------------------------------------------------------------------------
-|----------------------------------------------------------------------------
-|----------------------------------------------------------------------------
-|-6--6--6--6---2--2--2--2----------------------------------------------------
-|-6--6--6--6---2--2--2--2----------------------------------------------------
-|-4--4--4--4---0--0--0--0----------------------------------------------------
     And I hate, hate...                                                      

-|----------------------------------------------------------------------------
-|----------------------------------------------------------------------------
-|-4-4------------------------------------------------------------------------
-|-4-4--4--4--4---2---4-4-4---------------------------------------------------
-|-2-2--4--4--4---2---4-4-4---------------------------------------------------
-|------2--2--2---0---2-2-2---------------------------------------------------
   I'll never talk to you again...                                            
            
Hard to play? Try these video lessons and learn fast. | Correct




comments powered by Disqus
↑ Back to top | Tablatures and chords are parodies/interpretations of the original songs. You may use it for private study, scholarship, research or language learning purposes only