» » »

Happy Holiday You Bastard Tabs (ver.2)

Artists:  A B C D E F G H I J K L M N O P Q R S T U V W X Y Z # 

Happy Holiday You Bastard Tabs (ver.2)

*Blink 182*
Rating:
0/5 (0 votes)

Hard to play? Try these video lessons and learn fast.
                Blink 182 - Happy Holidays You Bastard

PS: Please Rate this.

Its Christmas Eve...
e-----------------|-----------|
B-----------------|-----------|
G-4-4-4-4-4-4-4-4-|-----------|
D-4-4-4-4-4-4-4-4-|-4-4-4-4-4-|X2
A-2-2-2-2-2-2-2-2-|-4-4-4-4-4-|
E-----------------|-2-2-2-2-2-|

And i Hate Hate Hate...
e-------------|-------------|
B-------------|-------------|
G-------------|-------------|
D-6-6-6-6-6-6-|-2-2-2-2-2-2-|
A-6-6-6-6-6-6-|-2-2-2-2-2-2-|
E-4-4-4-4-4-4-|-0-0-0-0-0-0-|

And i'll never Talk...          Unless your dad...
e---------|---------|---------|---------|
B---------|---------|---------|---------|
G-4-4-4-4-|---------|---------|---------|
D-4-4-4-4-|-4-4-4-4-|-2-------|---4-4-4-|
A-2-2-2-2-|-4-4-4-4-|-2-------|---4-4-4-|
E---------|-2-2-2-2-|-0-------|---2-2-2-|

I'll never talk to you again...
e---------|---------|-----------------|
B---------|---------|-----------------|
G-4-4-4-4-|---------|-----------------|
D-4-4-4-4-|-4-4-4-4-|-2-2-2-2-2-2-2-2-|
A-2-2-2-2-|-4-4-4-4-|-2-2-2-2-2-2-2-2-|
E---------|-2-2-2-2-|-0-0-0-0-0-0-0-0-|

End on

e-------|
B-------|
G-4---4-|
D-4---4-|
A-2---2-|
E-------|
            
Hard to play? Try these video lessons and learn fast. | Correct




comments powered by Disqus
↑ Back to top | Tablatures and chords are parodies/interpretations of the original songs. You may use it for private study, scholarship, research or language learning purposes only