» » »

*Blink 182*, Going Away To College Tabs (ver.3)

Artists:  A B C D E F G H I J K L M N O P Q R S T U V W X Y Z # 

Going Away To College Tabs (ver.3)

*Blink 182* Tabs
 Rating:
4/5 (4 votes)
Going Away To College lessons Tabs too difficult? Try these video lessons and learn fast
1
                ((Modified January 13, 2002 from the original version)) 

PLEASE VOTE !!

***Capo on the 2nd fret***

Intro: 2x   
e--------------------------------------------------------------|
B--------------------------------------------------------------|
G--6-6-6-6---6-6-6-6---6-6-6-6--6-6-6-6--2-2-2-2---4-4-4-4-----|
D--7-7-7-7---9-9-9-9---7-7-7-7--9-9-9-9--0-0-0-0---0-0-0-0-----|
A--0-0-0-0---0-0-0-0---0-0-0-0--0-0-0-0--0-0-0-0---0-0-0-0-----|
E------------0-0-0-0---0-0-0-0--0-0-0-0------------------------|

Riff 1 Repeat 2x				          
e----------------------------------------------------------------------------------|
B----------------------------------------------------------------------------------|
G-----------------6---------------6-------------------------6----------------------|
D--------7----------------7------------7----------7------------------9--------9----|
A-------------------------------------------5-5-------5-5-------7-7------7-7-------|
E---5-5-----5-5------5-5-----5-5---------------------------------------------------|

last time end on 
e-------------|
B-------------|
G-------------|
D---7~~-------|
A---7~~-------|
E---5~~-------|

Please take me by the hand it’s so cold out tonight I’ll put blankets on the bed but I won’t turn out the light just…

Riff 2
e------------------------------------------------------------------------|
B------------------------------------------------------------------------|
G-------------7-7-7-7---9-9-9-9-----------------7-7-7-7---9-9-9-9--------|
D---7-7-7-7---7-7-7-7---9-9-9-9--%----7-7-7-7---7-7-7-7---9-9-9-9--------|
A---7-7-7-7---5-5-5-5---7-7-7-7--%----7-7-7-7---5-5-5-5---7-7-7-7--------|
E---5-5-5-5---------------------------5-5-5-5----------------------------|
     
 Don’t forget to think about me and I (%) won’t forget you I’ll write you once a week she said...


Riff 1 Again 


Why does it feel the same to fall in love or break it off and if young love is just a game then I must’ve have missed the kickoff...


Riff 2 Again 

Don’t depend on me to ever follow through on anything but I ‘d go through hell for you and...

Chorus:  4x
e--------------------------------------------|
B--------------------------------------------|
G---6-6-6-6---7-7-7-7------------------------|
D---6-6-6-6---7-7-7-7---7-7-7-7---2-2-2-2----|
A---4-4-4-4---5-5-5-5---7-7-7-7---2-2-2-2----|
E-----------------------5-5-5-5---0-0-0-0----|

I haven’t been this scared in a long time…and I’m so unprepared so here’s your valentine bouquet of clumsy words a simple melody this worlds an ugly place but your so beautiful to me…


Riff 1 again 

Riff 2 again 

This time palm mute the first strokes of the chords and then play the rest out...
  
!!!  Play this 2x then the chords are played out !!!

e--------------------------------------------------------------------------|
B--------------------------------------------------------------------------|
G--------------------------------------------------------------------------|
D-------------------------------------x-x--7---x-x--7---x-x---9---x-x--9---|
A--x-x--7---x-x--7---x-x--7---x-x--7--x-x--5---x-x--5---x-x---7---x-x--7---|
E--x-x--5---x-x--5---x-x--5---x-x--5---------------------------------------|	


Chorus 1x


Intro:  4x

Chorus 1x

End on the song on :

e------------|
B------------|
G------------|
D----2~~-----|
A----2~~-----|
E----0~~-----|

This tab has been modified on January 13, 2002 and i hope this version is a lot better than the other one !!! 

ViNNiEgEe
            
Submit corrections

comments powered by Disqus
↑ Back to top | *Blink 182* Tabs for Going Away To College. Lyrics for acoustic guitar and electric guitar. 1 Tablatures and chords are parodies/interpretations of the original songs. You may use it for private study, scholarship, research or language learning purposes only