» » »

G O Tabs (ver.1)

Artists:  A B C D E F G H I J K L M N O P Q R S T U V W X Y Z # 

G O Tabs (ver.1)

*Blink 182*
Rating:
0/5 (0 votes)

Hard to play? Try these video lessons and learn fast.
                Intro
-------------------------------------------------------
-------------------------------------------------------
--9---------------9--------------------------------------
--9-------3-------9-------3--------------------------------
--7-(x8)--3-(x8)--7-(x8)--3-(x8)-------------------------------------------
--8-------1-------8-------1----------------------------------------------------------------------

Verse
-------------------------------------------------------
-------------------------------------------------------
---------------------------------------------------
-333333333333- 2- 5-----------------333333333333 2 5 ------------
------------------111111111111111--------------------11111111--------
Chorus
-------------------------------------------------------
-------------------------------------------------------
-------------------------------------------------------
---7------3------7------3----------------------------------
---7-(x8)-3-(x8)-7-(x8)-3-(x8)---------------------------------------------
---5------1------5------1----------------------------------
 
Repeat All of that in that order.

SOLO!!! Guitar!!!

A---3-5-7-3-2-3-5-3-3-5-3-3-2-3-----
End
-------------------------------------------------------
-------------------------------------------------------
--9------5-7-9-10--9------5-7-9-10--9-------------------------------
--9-(x8)-5-7-9-10--9-(x8)-5-7-9-10 -9-(x8) 3-------------------------------------------
--7------3-5-7--8--7------3-5-7--8--7------3-(hold)----------------------
-------------------------------------------1------------
            
Hard to play? Try these video lessons and learn fast. | Correct




comments powered by Disqus
↑ Back to top | Tablatures and chords are parodies/interpretations of the original songs. You may use it for private study, scholarship, research or language learning purposes only