» » »

*Blink 182*, Fuck A Dog Tabs (ver.1)

Artists:  A B C D E F G H I J K L M N O P Q R S T U V W X Y Z # 

Fuck A Dog Tabs (ver.1)

*Blink 182* Tabs
Rating:
0/5 (0 votes)
Hard to play? Try these video lessons and learn fast.
                This is track 16 on the album “Take Of Your Pants & Jacket”                                      Ok This Is My First Ever Tab But It Is Pretty Much 100% Correct
At this moment this is the only tab for this song on the net. Any comments e-mail


E--------------------------------------------------------------------
B---2-----2----------------------------------------------------------
G-2----2-1------2------1--------------------------------------------
D------------0-----0-2--(2)----------------------------------------
A--------------------------------------------------------------------
E--------------------------------------------------------------------
Play this 19x without the note in brackets then play it once with the note & let it ring out.

E--------------------------------------------------------------------
B--------------------------------------------------------------------
G----2------1-------------------------------------------------------
D-0----0-2----------------------------------------------------------                         A--------------------------------------------------------------------
E--------------------------------------------------------------------
 Then go back to the first bit about two times

Then the first bit once

Then

E--------------------------------------------------------------------
B----2------2--------------------------------------------------------
G-2----2-1-------2--------------------------------------------------
D--------------0----02----------------------------------------------
A--------------------------------------------------------------------
E--------------------------------------------------------------------

Lyrics

I want to f**k a dog in the ass
He wants to f**k a dog in the ass
I wanna f**k a dog
That’s right kids
I tried to f**k your mom in the ass 
I tried to f**k your dad in the ass
Could only find the dog
And his ass
We wanna f**k a dog in the ass x2
We wanna f**k a dog
I tried to f**k a f**kin pirate in the ass
Arrgh me end me first mate and scurvy curr (not to sure about this line) 
Tried to f**k a f**kin pirate
But I found the dog
Arrgh that was no pirate man that was thy own seester (sister)

We wanna f**k a dog in the ass x2

Wanna f**k a f**kin dog

f**k you
            

comments powered by Disqus
↑ Back to top | *Blink 182* Tabs for Fuck A Dog. Lyrics for acoustic guitar and electric guitar. Tablatures and chords are parodies/interpretations of the original songs. You may use it for private study, scholarship, research or language learning purposes only