» » »

First Date Tabs (ver.5)

Artists:  A B C D E F G H I J K L M N O P Q R S T U V W X Y Z # 

First Date Tabs (ver.5)

*Blink 182*
Rating:
0/5 (0 votes)

Hard to play? Try these video lessons and learn fast.
                "(IntroAndChorus)
*FIRST DATE*

This Song Can Be Found On The 
"Take Off your Pants And Jacket" 
CD And Is Played By BLINK 182 
Track #3 
Injoi Playing This Song And 
Remember BLINK BOYZ RAWK******




                   *INTRO*
e--0--------------------------------------!
B----1--1-1--3-1---1-1-3-1---1-1--3-1>>-0-!
G------0---------0---------0--------------!
D-----------------------------------------!(X2)
A-----------------------------------------!
E-----------------------------------------!


                  *VERSE 1*
e-----------------------------------!
B-----------------------------------!
G-----------------------------------!
D-----------------------------------!(X7)
A---3-3-3-3-3-3-3-3-----------------!
E-------------------3-3-3-3-1-1-1-1-!

               *Chorus*                                At The Part Where it goes 
                                                         "For Ever and Ever..."

e---------------------------    ----------------------------------------------------------------------!
B---------------------------    ----------------------------------------------------------------------!
G---------------------------    ----------------------------------------------------------------------!(X2)
D---555-444-----------------(X2)---5-5-5-5-5-5-5-5-4-4-4-4-4-4-4-4------------------------------------!
A---333-222--7>>>--3-3-5-5--    ---3-3-3-3-3-3-3-3-2-2-2-2-2-2-2-2--7-7-7-7-7-7-7-7---3-3-3-3-5-5-5-5-!
E------------5>>>--1-1-3-3--    ------------------------------------5-5-5-5-5-5-5-5---1-1-1-1-3-3-3-3-!

Play *INTRO*(X2) 
Play *VERSE*(X7)
Play *Chorus*

PALM MUTING PART ??????????????????

               
                      *Guitar SOLO!!!*

e------------------------------------------------------------!
B------------------------------------------------------------!
G--5-5-5-5-5-5-5-9-9-9-9-5-5-5-10 10 10 10 5-5-5-7-7-7-7-7-7-!
D--x-x-x-x-x-x-x-x-x-x-x-x-x-x-x--x--x--x--x-x-x-x-x-x-x-x-x-!(X4)
A--3-3-3-3-3-3-3-7-7-7-7-3-3-3-8--8--8--8--3-3-3-5-5-5-5-5-5-!
E------------------------------------------------------------!


Play *Chorus*
Play *INTRO*




LYRICZ:
       In the car I just can't wait,
to pick you up on our very first date
Is it cool if I hold your hand?
Is it wrong if I think it's lame to dance?
Do you like my stupid hair?
Would you guess that I didn't know what to wear?
I'm too scared of what you think
You make me nervous so I really can't eat

Let's go, don't wait, this night's almost over
Honest, let's make this night last forever
Forever and ever, let's make this last forever
Forever and ever, let's make this last forever

When you smile, I melt inside
I'm not worthy for a minute of your time
I really wish it was only me and you
I'm jealous of everybody in the room
Please don't look at me with those eyes
Please don't hint that you're capable of lies
I dread the thought of our very first kiss
A target that i'm probably gonna miss

Let's go,don't wait, this night's almost over
Honest, let's make this night last forever
Forever and ever, let's make this last forever
Forever and ever, let's make this last forever

Let's go, don't wait, this night's almost over
Honest, let's make, this night last forever
Forever and ever, let's make this last forever
Forever and ever, let's make this last forever
Forever and ever, let's make this last forever
Forever and ever, let's make this last forever
"            
Hard to play? Try these video lessons and learn fast. | Correct




comments powered by Disqus
↑ Back to top | Tablatures and chords are parodies/interpretations of the original songs. You may use it for private study, scholarship, research or language learning purposes only