>
 >
First Date 8

First Date 8 Guitar Tabs

*Blink 182* - First Date 8 chords, tabs, tablatures, lyrics

Guitar lessons | Add/correct | Request | Top 50 tabs Artists:  A B C D E F G H I J K L M N O P Q R S T U V W X Y Z 0-9

First Date 8 Guitar Tabs – *Blink 182*

CD, Sheet music, Poster

Do you like First Date 8? Share with your friends now
Tabs
blink 182, first date.
  
----------------------------------------------------------------------
   BLINK-182                 T.O.Y.P.A.J.                      2001

   03 -> FIRST DATE                                  

   My hear is not perfect so if you find any errors or if you have
     any comments don't hesitate e-mail me I answer every mail :
----------------------------------------------------------------------


CHORD CHART:
        F       B       G       C       A
E|--------------------------------------------------------------------
B|--------------------------------------------------------------------
G|--------------4---------------5-------------------------------------
D|------3-------4-------5-------5-------7-----------------------------
A|------3-------2-------5-------3-------7-----------------------------
E|------1---------------3---------------5-----------------------------

~ = let ring
x = palm mute



Riff 1:
E|-0--------------------------------0---------------------------------
B|--1111111-31111111-31111111-31110--1111111-31111111-31111111-311101-
G|--------------------------------------------------------------------
D|--------------------------------------------------------------------
A|--------------------------------------------------------------------
E|--------------------------------------------------------------------


Verse:
      C~        
        In the car I just can't wait

        To pick you up on our very first date

        Is it cool if I hold your hand ?

        Is it wrong if I think it's lame to dance ?


E|---------
B|--111----
G|---------  Repeat Palm muted
D|---------
A|---------
E|---------
        Do you like my stupid hair ?
        Would you guess that I didn't know what to wear ?
        I'm just scared of what you think
        You make me nervous so I can't eat.


Chorus:
      C
        Let's go
      B
        Don't wait
      A             F      G
        This nights almost over
      C         B          A          F       G
        Honest, let's make this night last forever.
      C         B
        Forever and ever
      A                 F       G
        Let's make this last forever
      C         B        A                F       G
        Forever and ever. Let's make this last forever.


-- Riff 1 --


Verse:
     C~
        When you smile, I melt inside

        I'm not worthy for a minute of your time

        I really wish it was only me and you.

        I'm jealous of everybody in the room.

E|---------
B|--111----
G|---------  Repeat Palm muted
D|---------
A|---------
E|---------
        Please don't look at me with those eyes
        Please don't hint that you're capable of lies
        I dread the though of our very first kiss
        A target that I'm probably gonna miss


-- Chorus --


Riff 2: (Palm muted)
E|--------------------------------------------------------------------
B|--------------------------------------------------------------------
G|--------------------------------------------------------------------
D|--------------------------------------------------------------------
A|-33333333-------------------------33333333--------------------------
E|----------0000000-1111111-3333333----------0000000-1111111-3333333--


Riff 3: X 4
E|--------------------------------------------------------------------
B|--------------------------------------------------------------------
G|--------------------------------------------------------------------
D|-----------2222-------3333-------00000000---------------------------
A|-3333333--------333--------333--------------------------------------
E|--------------------------------------------------------------------


-- Chorus --

End on C

 





Comments


Popular *Blink 182* tabs & chords
1st Date 2 Bass Tabs
Dammit Intro Chords
Anthem Part Two 15 Tabs
Apple Shampoo Tabs
Bonus Track 1 Tabs
Dancing With Myself Intro Tabs
Everytime I Look For You 2 Tabs
I Miss You 1 Tabs
Lemming Tabs
Untitled Live Tabs


Song lyrics



↑ Back to top | Tablatures and chords are parodies/interpretations of the original songs. You may use it for private study, scholarship, research or language learning purposes only
© 2014 AZChords.com Contact us | Privacy policy | DMCA | Add/correct tabs | Request tabs | Top 50 tabs