» » »

Fighting The Gravity Tabs (ver.2)

Artists:  A B C D E F G H I J K L M N O P Q R S T U V W X Y Z # 

Fighting The Gravity Tabs (ver.2)

*Blink 182*
Rating:
0/5 (0 votes)

Hard to play? Try these video lessons and learn fast.
                -Neighborhoods-

Andrew MacKinnon
Hey Guys i made This Guitar tab by ear...
im sure its 90% correct i know i might be
missing some things 
XxAVAndrew182xX If u wanna message me about this
i will awnser any questions ....

\=Slide Down
/=Slide Up

Intro (0:00)
e|---------------------------------------------------------------------|
B|---------------------------------------------------------------------|
G|---------------------------------------------------------------------|
D|-13\-------------------------9---------------------------------------| X1
A|---------------------------------------------------------------------|
E|--------------12\-/12------------------------------------------------|

e|---------------------------------------------------------------------|
B|---------------------------------------------------------------------|
G|----------------------------------------13---------------------------|X1
D|--2------------------------------------------------------------------|
A|--2------------------------------------------------------------------|
E|---------------------------------------------------------------------|

e|--12-----------------------------------------------------------------|
B|-----12-13-12-10-9-------(10-9)--------------------------------------|
G|---------------------------------------------------------------------|
D|---------------------------------------------------------------------| x5
A|---------------------------------------------------------------------|
E|---------------------------------------------------------------------|

Verse (1:22)
e|-----------------------------12\6/-7----12--12-----------------------|
B|---------------10\-/-8------------------------12---19\---------------|
G|---------------------------------------------------------------------|
D|---------------------------------------------------------------------|
A|--7---7--------------------------------------------------------------|
E|---------------------------------------------------------------------|

Chorus (1:47)
e|---------------------------------------------------------------------|
B|---------------------------------------------------------------------|
G|--555555-------------------------------------------------------------|X3
D|--555555---22---777777-----------------------------------------------|
A|--333333---22---777777-----------------------------------------------|
E|-----------00---555555-----------------------------------------------|

(2:08)
e|---------------------------|
B|---------------------------|
G|---------------------------|
D|--5----777-66-666-6--------| x1
A|--5-------------------14\--|
E|--3------------------------|

Verse 2 (2:22)
e|------------------12--19\-------------------------------------|
B|--------------------------------------------------------------|
G|---12---------------------------------------------------------|
D|--------------------------------------------------------------| X1
A|--------------------------------------------------------------|
E|--------12----12----------------------------------------------|

Chorus (2:35)
e|--------------------------------------------------------------------|
B|--------------------------------------------------------------------|
G|--555555------------------------------------------------------------|
D|--555555---22---777777----------------------------------------------| x3
A|--333333---22---777777----------------------------------------------|
E|-----------00---555555----------------------------------------------|

(2:56)
e|-------------|
B|-------------|
G|-------------|
D|--5----------| x1
A|--5----------|
E|--3----------|

Outro (2:59)
e|--------------------------------|
B|--------------------------------|
G|--------------------------------|
D|--777-66-666-6-666-777-66-666-6-| x1
A|--------------------------------|
E|--------------------------------|
            
Hard to play? Try these video lessons and learn fast. | Correct




comments powered by Disqus
↑ Back to top | Tablatures and chords are parodies/interpretations of the original songs. You may use it for private study, scholarship, research or language learning purposes only