» » »

*Blink 182*, Feeling This Bass tabs (ver.5)

Artists:  A B C D E F G H I J K L M N O P Q R S T U V W X Y Z # 

Feeling This Bass tabs (ver.5)

*Blink 182* Tabs
Rating:
0/5 (0 votes)
Feeling This lessons Tabs too difficult? Try these video lessons and learn fast
                100% sure this is correct. Played on standard tuning. Have fun !

Note: This is the album version. I think it's lightly different LIVE.


Verse (I Got No Regret Right Now)
G|-------------------------------------------------------|
D|---9--9-9----------------------------------------9-----|
A|-77-77-7-----9--9-7-6-4---11--11-11----9---1212--------| x4
E|-----------77--7--------99--99--9----77---7------------|

Chorus (Fate Fell Short This Time)
G|-------------------------------------|
D|-------------------------------------|
A|----------22222222-44444444-00000000-| x2
E|-00000000----------------------------|

Verse 2 (Smiling from ear to ear)
G|-------------------------------------------------------|
D|---9--9-9----------------------------------------9-----|
A|-77-77-7-----9--9-7-6-4---11--11-11----9---1212--------| x4
E|-----------77--7--------99--99--9----77---7------------|

Chorus 2 (Fate Fell Short This Time)
G|-------------------------------------|
D|-------------------------------------|
A|----------22222222-44444444-00000000-| x2
E|-00000000----------------------------|

You may play this guit part just 4 fun at 1:45
G|-------|
D|-------|
A|-------| x1
E|--12~--|

Bridge (Look to the past)
G|-------------------------------------|
D|-------------------------------------|
A|-77777777-22222222-44444444-00000000-| x1
E|-------------------------------------|

G|-------------------------------|
D|-----------------------6-4-2---|
A|-77777777-22222222-4444-----2--| x1
E|-------------------------------|

Ending Part (almost like the Intro/Verse) play thos two in alternance 
G|----------------------------------------------------|
D|---9--9-9--------------------------------9------9---|
A|-77-77-7-----9-9-7-6-4----11-11-11---1212-121212----| 
E|-----------77-7---------99--9--9---9----------------|

G|------------------------------------------------|
D|---9--9-9---------------------------------------|
A|-77-77-7------9-9-7-6-4---11--11-11---9---9-----| x7
E|------------77-7--------99--99--9---77-777-7----|

For the last part

G|-----------------------------------------------|
D|---9--9-9--------------------------------------|
A|-77-77-7------9-9-7-6-4---11--11-11---9---9----| 
E|------------77-7--------99--99--9---77-777-7-0-|
            
Submit corrections

comments powered by Disqus
↑ Back to top | *Blink 182* Bass for Feeling This. Lyrics for acoustic guitar and electric guitar. Tablatures and chords are parodies/interpretations of the original songs. You may use it for private study, scholarship, research or language learning purposes only