» » »

*Blink 182*, Feeling This Tabs (ver.8)

Artists:  A B C D E F G H I J K L M N O P Q R S T U V W X Y Z # 

Feeling This Tabs (ver.8)

*Blink 182* Tabs
 Rating:
4/5 (4 votes)
Feeling This lessons Tabs too difficult? Try these video lessons and learn fast
1
                
Gtrs. 1-3:Drop D tuning, Capo II
(low to High)D-A-D-G-B-E
Gtr. 4:Drop D tuning:
(low to High)D-A-D-G-B-E
Gtrs. 6&7:Capo II

  -Intro- Gtr.1
e-------------------------------------------------------------|
G-------------------------------------------------------------|
B-9\7-7-7---------7/11--------9\7-7-7---------7/11------------|
D-x---x-x---------x-----------x---x-x---------x---------------|
A-7\5-5-5----5----5/ 9----0---7\5-5-5----5----5/ 9----0-------|
D------------0------------0--------------0------------0-------|

  -Verse- Gtr.1 tacet
Gtrs.2&3
e-------------------------------------------------------------|
G-------------------------------------------------------------|
B-9\7-7-7---------7/11--------9\7-7-7---------7/11------------|
D-x---x-x---------x-----------x---x-x---------x---------------|
A-7\5-5-5----5----5/ 9----0---7\5-5-5----5----5/ 9----0-------|
D------------0------------0--------------0------------0-------|

  -Chorus- Gtr.4
e-------------------------------------------------------------|
G-------------------------------------------------------------|
B-------------------------------------------------------------|
D-9--9-9-9-9-9\4--4-4-4-4-4-4--6--6-6-6-6-6----7--7-7-7-7-7-7-|
A-7--7-7-7-7-7\2--2-2-2-2-2-2--4--4-4-4-4-4-0--7--7-7-7-7-7-7-|
D-9--9-9-9-9-9\4--4-4-4-4-4-4--6--6-6-6-6-6-0--7--7-7-7-7-7-7-|

e-------------------------------------------------------------|
G-------------------------------------------------------------|
B-------------------------------------------------------------|
D-9--9-9-9-9-9\4--4-4-4-4-4-4--6--6-6-6-6-6/7--7-7-7-7-7-7----|
A-7--7-7-7-7-7\2--2-2-2-2-2-2--4--4-4-4-4-4/7--7-7-7-7-7-7----|
D-9--9-9-9-9-9\4--4-4-4-4-4-4--6--6-6-6-6-6/7--7-7-7-7-7-7----|

  -Interlude- Gtr.1
e------------------------------------------------------------------|
G------------------------------------------------------------------|
B-7--7-7-7-7-7-7--7/9--9-9-9-9-9-9--9/11--11-11-11-11-11-11--11/12-|
D-x--x-x-x-x-x-x--x----x-x-x-x-x-x--x--x---x--x--x--x--x--x---x----|
A-5--5-5-5-5-5-5--5/7--7-7-7-7-7-7--7/ 9---9--9--9--9--9--9---9/10-|
D------------------------------------------------------------------|

e------------------------------------------------------------------|
G------------------------------------------------------------------|
B-12-12-12-12-12-12------------------------------------------------|
D--x--x--x--x--x--x------------------------------------------------|
A-10-10-10-10-10-10------------------------------------------------|
D------------------------------------------------------------------|

  -Bridge- Gtr.5 tacet
Gtr.6  (Look to the past and remember her smile......)
e--------------------------------------------------------------------|
G--------------------------------------------------------------------|
B--------------------------------------------------------------------|
D-----4---4-----------------------------4---4------------------------|
A-5-5---5---5-5-5----5-5-5-5-7-7-7--5-5---5---5-5-5----5-5-5-5-7-7-7-|
E--------------------------------------------------------------------|
p.m.................................................................
Gtr.7
e--------------------------------------------------------------------|
G--------------------------------------------------------------------|
B--------------------------------------------------------------------|
D--------------------------------------------------------------------|
A-5-5-5-5-5-5-5-5-0-0-0-0-0-0-0-0-2-2-2-2--2-2-2-2-------------------|
E--------------------------------------------------3-3-3-3--3-3-3-3--|
p.m................................................................
Gtr.6
e--------------------------------------------------------------------|
G--------------------------------------------------------------------|
B--------------------------------------------------------------------|
D-----4---4-----------------------------4---4------------------------|
A-5-5---5---5-5-5----5-5-5--5-7-7-7--5-5---5---5--5------------------|
E----------------------------------------------------3---------------|
p.m...................................................
Gtr.7
e--------------------------------------------------------------------|
G--------------------------------------------------------------------|
B--------------------------------------------------------------------|
D--------------------------------------------------------------------|
A-5-5-5-5--5-5-5-5-0-0-0-0--0-0-0-0-2-2-2-2--2-2-2-------------------|
E----------------------------------------------------3---------------|
p.m...................................................

  -Outro Chorus-
Gtrs.6&7
e-----------------------------------------------------------------|
G-----------------------------------------------------------------|
B-7-7-7-7-7-7-7---------------------------------------------------|
D-7-7-7-7-7-7-7---7-7-7-7-7-7-7---9-9-9-9-9-9-9---5-5-5-5-5-5-5---|
A-5-5-5-5-5-5-5---7-7-7-7-7-7-7---9-9-9-9-9-9-9---5-5-5-5-5-5-5---|
E---------------0-5-5-5-5-5-5-5-0-7-7-7-7-7-7-7-0-3-3-3-3-3-3-3-0-|

  -Order-
-Intro........................x2
-Verse........................x8
-Chorus.......................x2
-Interlude....................x1
-Verse........................x8
-Chorus.......................x2
-Bridge.......................x1
-Outro Chorus.......fades on 9th
            
Submit corrections

comments powered by Disqus
↑ Back to top | *Blink 182* Tabs for Feeling This. Lyrics for acoustic guitar and electric guitar. 1 Tablatures and chords are parodies/interpretations of the original songs. You may use it for private study, scholarship, research or language learning purposes only