» » »

*Blink 182*, Every Time I Look For You Tabs (ver.3)

Artists:  A B C D E F G H I J K L M N O P Q R S T U V W X Y Z # 

Every Time I Look For You Tabs (ver.3)

*Blink 182* Tabs
 Rating:
4/5 (4 votes)
Every Time I Look For You lessons Tabs too difficult? Try these video lessons and learn fast
1
                _____________________________________________________

_____________________________________________________
 ps copy to notepad and ALWAYS use (ANDALE MONO)font


  + BLINK 182----------------| EVERY TIME I LOOK FOR YOU





              ***INTRO***VERSE***
E---------------------------------------------------
B---------------------------------------------------
G---4-4-4-4-4-4-4-4-4-4-4-4-4-4-4-4-4-4-4-4-4-4-4---
D---------------------------------------------------(x2)
A---2-2-2-2-2-2-2-2-2-2-2-2-2-2-2-2-2-2-2-2-2-2-2---
E---------------------------------------------------
      (B)

*B* G------------------------------------
*A* D------------------------------------
*S* A---2--------4--------7--------------(x4)
*S* E------------------------------------
       (B)      (C#)     (E)


   E----------------|------------|------------|--------------|
   B---4---0--2-4---|--0---2-4---|--0---2-4---|--0---2-4-----|
   G----------------|------------|------------|--------------|
   D----------------|------------|------------|--------------|(X2)
   A----------------|------------|------------|--------------|
   E----------------|------------|------------|--------------|


[1] I never found out why you left here
    But this answer begs that question
    Too blind to see tommorrow
    Too poor to beg or borrow

       Young and stupid...Left wide open
       Hearts are wasted..Lives are broken


[2] One more point of contention
    I need some intervention
    Approached with vague intentions
    Betray my short attention 

       Span the distance...Bridge the border
       Beg Forgiveness.....Round the corner


[3] More time apart will give you
    A few months to argue
    Is this too much to live through
    It always seemed too far to
    
        Drive the point home...Send More letters
        Pray tommorrow.........Ends up better



                      ***CLASS RIFF***                                        
     [g]   E---------------------------------------------   
     [u]   B------------7-7-7-7---5-5-5-5----------------
     [i]   G--4-4-4-4---6-6-6-6---4-4-4-4---6-6-6-6------       
1rst [t]   D--4-4-4-4---4-4-4-4---2-2-2-2---6-6-6-6------
     [a]   A--2-2-2-2-----------------------4-4-4-4------     
  +  [r]   E---------------------------------------------       
               (B)       (F#)       (E)       (C#)                                         
  +                                                   
     [g]   E------------|------------|------------|--------------|
  +  [u]   B--0---5-4---|--0---5-4---|--0---5-4---|--0---2-4-----|
     [i]   G------------|------------|------------|--------------|
2nd  [t]   D------------|------------|------------|--------------|(X2)
     [a]   A------------|------------|------------|--------------|
     [r]   E------------|------------|------------|--------------|
                   



_____________________________________________________________
                 *********CHORUS************                 |
    E---------------------------------------|-----------     |
    B---------------------------------------|-----------     |
    G--4-4-4-4-4-4-4-4-4-4-4-4-4-4-4-4-4----|-----------     |
    D---------------------------------------|--2-2-2-2--     |
    A--2-2-2-2-2-2-2-2-2-2-2-2-2-2-2-2-2----|--2-2-2-2--     |
    E---------------------------------------|--0-0-0-0--     |
                                                             |
    *B* G------------------------------------|---------      |
    *A* D------------------------------------|---------      |
    *S* A------------------------2-2-2-2-(x4)|---------      |
    *S* E---4-4-4-4----0-0-0-0---------------|-0-0-0-0-      |
             ((G#)       (E)       (B)           (E)         |
                                                             |
Every time I look for you..The sun goes down                 |
And I stumble when this whole thing runs aground             |
I left another message.....You are never around              |
But everytime I look for you the sun goes down once more...  |  
..................Will the last one out please shut the door |
_____________________________________________________________|



            ***BRIDGE***
E---------------------------------------------------
B---------------------------------------------------
G-4-4-4-4---8-8-8-8---11-11-11-11----9-9-9-9-9-9-9--
D---------------------------------------------------
A-2-2-2-2---6-6-6-6----9--9--9--9----7-7-7-7-7-7-7--
E---------------------------------------------------

I never did do anything that she asked
I never let what happened stay in the past
I never did quite understand what she meant
In spite of everything...In spite of everything


 ___________________________
June 10th 2001              |
(Kev 16 Male) IRISH         |
My tabs are always right    |
____________________________|
...songs taken from blink 182 Take Off Your Pants And Jacket
            
Submit corrections

comments powered by Disqus
↑ Back to top | *Blink 182* Tabs for Every Time I Look For You. Lyrics for acoustic guitar and electric guitar. 1 Tablatures and chords are parodies/interpretations of the original songs. You may use it for private study, scholarship, research or language learning purposes only