>
 >
Enema Of The State Cd

Enema Of The State Cd Guitar Tabs

*Blink 182* - Enema Of The State Cd chords, tabs, tablatures, lyrics

Guitar lessons | Add/correct | Request | Top 50 tabs Artists:  A B C D E F G H I J K L M N O P Q R S T U V W X Y Z 0-9

Enema Of The State Cd Guitar Tabs – *Blink 182*

CD, Sheet music, Poster

Do you like Enema Of The State Cd? Share with your friends now
Tabs

1) Dumpweed  
Intro:
e--------------------------------------------------------------------------|
B--------------------------------------------------------------------------|
G-----1-1h2p1------------1-1h2p1--------2-1-1h2p1----------2-1-1h2p1-4-----|
D--2--------------4-2--2-------------4--2-------------4-2--2-------------4-|
A--2----------2-0------2---------2-0----0---------2-0------0-----------2---|
E--0-------------------0---------------------------------------------------|

Interlude for Guitar (Repeat 2x):
e-4-------4-------2-------2-------4-------4-------5-------5-------|
B-----5-------5-------5-------5-------5-------5-------5-------5---|
G---4---4---4---4---4---4---4---4---4---4---4---4---4---4---4---4-|
D-----------------------------------------------------------------|
A-----------------------------------------------------------------|
E-----------------------------------------------------------------|

Verse(Heavy Palm Muting; Repeat 2x):
  E5        B5        E5        B5 
e-------------------------------------------------| 
B-------------------------------------------------|
G-----------4-4-4-4-4-----------4-4-4-4-4---------|
D-2-2-2-2-2-4-4-4-4-4-2-2-2-2-2-4-4-4-4-4---------|
A-2-2-2-2-2-2-2-2-2-2-2-2-2-2-2-2-2-2-2-2---------|
E-0-0-0-0-0-----------0-0-0-0-0-------------------|
  A5        B5        A5        B5
e-------------------------------------------------| 
B-------------------------------------------------|
G-2-2-2-2-2-4-4-4-4-4-2-2-2-2-2-4-4-4-4-4---------|
D-2-2-2-2-2-4-4-4-4-4-2-2-2-2-2-4-4-4-4-4---------|
A-0-0-0-0-0-2-2-2-2-2-0-0-0-0-0-2-2-2-2-2---------|
E-------------------------------------------------|
Play Intro
Chorus (Play 2x):
  E5        B5        A5        B5 
e-------------------------------------------------| 
B-------------------------------------------------|
G-----------4-4-4-4-4-2-2-2-2-2-4-4-4-4-4---------|
D-2-2-2-2-2-4-4-4-4-4-2-2-2-2-2-4-4-4-4-4---------|
A-2-2-2-2-2-2-2-2-2-2-0-0-0-0-0-2-2-2-2-2---------|
E-0-0-0-0-0---------------------------------------|

Play Verse (Play Riff Only Once As Opposed To Twice):

Play Intro

Play Chorus (Play Riff 4 Times):

Play Verse (Play Riff Twice):

Play 3x
E-4-----2---2-----2---4-----2---5-----2-----|
B---------5---------5---------5---------5---|
G---4-4-------4-4-------4-4-------4-4-------|
D-------------------------------------------|
A-------------------------------------------|
E-------------------------------------------|

2) Donít Leave Me
Intro:  (Repeat 2x)
E------------------------------------------|
B------------------------------------------|
G----------------xxxx-7---xxxx-4---7777-9999---|
D---xxxx-7---xxxx-7---xxxx-4---7777-9999---|
A---xxxx-7---xxxx-5---xxxx-2---5555-7777---|
E---xxxx-5---------------------------------|

Verse:  (just let ring)

E-----------|
B-----------|
G-----------|
D-----------|
A----7------|
E----5------|

Chorus:  (Repeat 4x)

e-------------------------------|
B-------------------------------|
G----------4444---7777---9999---|
D---7777---4444---7777---9999---|
A---7777---2222---5555---7777---|
E---5555------------------------|

Bridge (Repeat 8x)

e----------------------------|
B----------------------------|
G----------------------------|
D------------7-----------7---|
A--------7-----------7-------|
E---5------------5-----------|
Intro
Verse
Chorus
Intro
Verse
Chorus
Bridge
Chorus
Verse

3) Aliens Exist
Intro:
E|--------------------------------------------------------------------|
B|--------------------------------------------------------------------|
G|--------------------------------------------------------------------|
D|-5-5-5-5-5-5-5-5-7-7-7-7-8-8-8-8-11---------------------------------|
A|-5-5-5-5-5-5-5-5-7-7-7-7-8-8-8-8-11->>>>>>>>>>>>--------------------|
E|-3-3-3-3-3-3-3-3-5-5-5-5-6-6-6-6-9----------------------------------|
       (These Chords are muted)           

BETWEEN 1ST AND SENCOND VERSES:
e|---------|----------------------------------------------------------|
B|---------|----------------------------------------------------------|
G|--pick---|----4-4-4-xxxx--------------------------------------------|
D|-slide---|----4-4-4-xxxx-4-4-xx-6-6-6-xxxx-4-4-xx-------------------|
A|-\-\-\---|----2-2-2-xxxx-4-4-xx-6-6-6-xxxx-4-4-xx-------------------|
E|---------|-----------------------2-2-xx-4-4-4-xxxx-2-2-xx-------------------|
                          (Twice)
             *for the second verse just play these same chords, only 
                mute them and play them all in eighth notes

Chorus:
e|--------------------------------------------------------------------|
B|--------------------------------------------------------------------|
G|-4-4-4-4-4-4-4-4-------------------------4-4-4-4-4-4-4-4--------------------|
D|-4-4-4-4-4-4-4-4-4-4-4-4-4-4-4-4-4-4-4-4-4-4-4-4-4-4-4-4-4-4-4-4----|
A|-2-2-2-2-2-2-2-2-4-4-4-4-4-4-4-4-2-2-2-2-2-2-2-2-4-4-4-4-4-4-4-4----|
E|-------------------------2-2-2-2-2-2-2-2-------------------------2-2-2-2-2-2-2-2----|

e|-----------------------------------|--------------------------------|
B|-----------------------------------|--------------------------------|
G|-----------------------------------|---play twice-------------------|
D|-----------------------------------|--------------------------------|
A|-444-444-444-444-777-777-777-777---|--------------------------------|
E|-222-222-222-222-555-555-555-555---|--------------------------------|

e|--------------------------------------------------------------------|
B|--------------------------------------------------------------------|
G|---------4--------4--------------------4----------------------------|
D|-4-------4->>>>---4-->>>>-4------------4->>>>-----------------------|
A|-4->>>>--2--------2-------4->>>>-------2----------------------------|
E|-2------------------------2-----------------------------------------|

INTERLUDE:
Guitar 1 Plays: (play twice)
e|--------------------------------------------------------------------|
B|--------------------------------------------------------------------|
G|-444-444-444-444-444-444-444-444-444-444-444-444-444-444-444-444----|
D|-222-222-222-222-222-222-222-222-222-222-222-222-222-222-222-222----|
A|--------------------------------------------------------------------|
E|--------------------------------------------------------------------|
While Guitar 2 Plays: (begining 2nd time)
e|--------------------------------------------------------------------|
B|--------------------------------------------------------------------|
G|--4---4---4---4-----------------------------------------------------|
D|------------------4---4---4---4---6---6---6---6---4---4---4---4-----|
A|--------------------------------------------------------------------|
E|--------------------------------------------------------------------|

4) Going Away To College

Chords Used In This Song:
  B5  C#5 E5  G#5 F#5
E---------------------| 
B---------------------|
G--4---6---9----------|
D--4---6---9---6---4--|
A--2---4---7---6---4--|
E--------------4---2--|

Intro (Repeat 2X)
E-------------------------------------------------| 
B--4-4-4-4--2-2-2-2--4-4-4-4--2-2-2-2-------------|
G--4-4-4-4--4-4-4-4--4-4-4-4--4-4-4-4-------------|
D-------------------------------------------------|
A-------------------------------------------------|
E-------------------------------------------------|

E-------------------------------------------------| 
B--4-4-4-4--2-2-2-2--4-4-4-4--2-2-2-2-------------|
G--4-4-4-4--4-4-4-4--4-4-4-4--4-4-4-4-------------|
D--2 2 2 2--2-2-2-2--2-2-2-2--2-2-2-2-------------|
A-------------------------------------------------|
E-------------------------------------------------|

Interlude For Guitar 1 (Repeat 2X)

e-------------------------------------------------| 
B------------4-----------4-----------4-----2-----2|
G------4-----------4-----------4------------------|
D--------------------------2-2---2-2---4-4---4-4--|
A--2-2---2-2---2-2---2-2--------------------------|
E-------------------------------------------------|

Interlude For Guitar 2 (Repeat 2X)
  B5  C#5  E5
e---------------| 
B---------------|
G--4---6---9----|
D--4---6---9----|
A--2---4---7----|
E---------------|

Note : Not shown w/ proper rhthym/spacing.
       Let each chord ring.

Verse 1 
     B5              C#5         E5.

Play Interlude

Verse 2 
B5              C#5         E5

Chorus:
    G#5       E5        B5   F#5
Play Interlude


Verse 3
C#5                      B5              E5    

Play Chorus

Play Intro

Play Chorus

5) Whatís My Age Again?
Intro/Verse 1 
  
  N.C                   
e-----6-------6-------6-------6-------6-------6---| 
B---7---7---7---7---7---7---7---7---7---7---7---7-|
G-6-------6-------6-------6-------6-------6-------|
D-------------------------------------------------|
A-------------------------------------------------|
E-------------------------------------------------|


Chorus (Repeat during the following part)
   F#5    C#5    D#5     B5
e-------------------------------| 
B-------------------------------|
G----------6------8------4------|
D---4------6------8------4------|
A---4------4------6------2------|
E---2---------------------------|

Intro

Verse 2 (Palm Mute the Chorus)

Chorus

Interlude

e---6------6-----6-----6---------------------------------------------| 
B-----7------7-----7-----7-------------------------------------------|
G-6------6-----6-----6--------------3---------3---------3---------3--|
D---------------------------4-4-4-6---4-4-4-6---4-4-4-6---4-4-4-6----|
A--------------------------------------------------------------------|
E--------------------------------------------------------------------|

e-------2-------------2------------2-------------2-------------------|
B---------2-------------2------------2-------------2-----------------|
G---3---------3---3---------3---3--------3---3---------3-------------|
D-4---4-----4---4---4-----4---4---4----4---4---4-----4---------------|
A--------------------------------------------------------------------|
E--------------------------------------------------------------------|

e-------2-------------2------------2-------------2-------------2-----|
B---------2-------------2------------2-------------2-------------2---|
G---3---------3---3---------3---3--------3---3---------3---3--------3|
D-4---4-----4---4---4-----4---4---4----4---4---4-----4---4---4----4--|
A--------------------------------------------------------------------|
E--------------------------------------------------------------------|

6) Dysentery Gary
Intro: (2x) strummed fast using up/down strokes
E|----------------------------------------------------------|
B|----------------------------------------------------------|
G|----------------------------------------------------------|
D|----------------------------------------------------------|
A|-9-9-9-9-9------------10-10-10-10--9-9-9-9-9--------------|
E|------------10-10-10--------------------------10-10-10-10-|
                                                           
e|-----------------------------------------------------|    
B|-----------------------------------------------------|
G|-----------------------------------------------------| 
D|-------------4-4-4-4--------------4-4-4-4-4-4-4-5----|
A|-----------------------------------------------------| 
E|--3-3-3-3-------------5-5-5-5------------------------| 
                                             
Intro w/ Fill (2x)                           
Fill:                                         
E|---D-----------------G-----------------A------------|
B|----------------------------------------------------| 
G|---7-7-7-7-7-7-7-7----------------------------------|
D|---7-7-7-7-7-7-7-7---5-5-5-5-5-5-5-5---7-7-7-7-7-7--|
A|---5-5-5-5-5-5-5-5---5-5-5-5-5-5-5-5---7-7-7-7-7-7--|
E|---------------------3-3-3-3-3-3-3-3---5-5-5-5-5-5--|
                                                        
Riff 1: (2x) muted fast                                  
e|---D-----------------D-----------------G------------------|
B|----------------------------------------------------------|
G|---7-x-x-x-x-x-x-7---7-x-x-x-x-x-x-7----------------------|
D|---7-x-x-x-x-x-x-7---7-x-x-x-x-x-x-7---5-x-x-x-x-x-x-5----|
A|---5-x-x-x-x-x-x-5---5-x-x-x-x-x-x-5---5-x-x-x-x-x-x-5----|
E|---------------------------------------3-x-x-x-x-x-x-3----|

E|----A----------------------|
B|---------------------------|
G|---------------------------|
D|----7-x-x-7-x-x-x-7-x-7----|
A|----7-x-x-7-x-x-x-7-x-7----|
E|----5-x-x-5-x-x-x-5-x-5----|

D                        D
 Got a lotta heart ache.  He's a fucken weasel. 
G                              A
 His issues make my mind ache.  Wanna make a deal. 
D                                 D
 Cause I love your little motions. You with your pigtails. 
G                      A
 What a nice creation.  Worth another night in jail. 

Pre-Chorus: (1x)-Clean Guitar
E|---D-----------------------G---------------A--------------|
B|----------------------------------------------------------|
G|---7-7-7-7-7-7-7-7-7-7-7----------------------------------|
D|---7-7-7-7-7-7-7-7-7-7-7---5-5-5-5-5-5-5---7-7-7-7-7-7-7--|
A|---5-5-5-5-5-5-5-5-5-5-5---5-5-5-5-5-5-5---7-7-7-7-7-7-7--|
E|---------------------------3-3-3-3-3-3-3---5-5-5-5-5-5-5--|

Chorus: (1x)
E|---D-----------------------G---------------A--------------|
B|----------------------------------------------------------|
G|---7-7-7-7-7-7-7-7-7-7-7----------------------------------|
D|---7-7-7-7-7-7-7-7-7-7-7---5-5-5-5-5-5-5---7-7-7-7-7-7-7--|
A|---5-5-5-5-5-5-5-5-5-5-5---5-5-5-5-5-5-5---7-7-7-7-7-7-7--|
E|---------------------------3-3-3-3-3-3-3---5-5-5-5-5-5-5--|

D
He's a player, diarrhea giver, tried to grow his hair out, 
when friends were listening to Slayer. 
G
I would like to find him Friday night. 
A
Hanging out with mom and trying on his father's tights.

Post-Chorus: (6x)
E|---15-14----------------------|
B|------------15----------------|
G|-------------------12-12-12---|
D|------------------------------|
A|------------------------------|
E|------------------------------|

(1)              (2)             (3)            (4)  
Life just sucks, I lost the one. I'm giving up, she found someone.
(5)                  (6)
There's plenty more. Girls are such a drag. 

Intro w/ Fill (2x)
Fill: 
E|---D-----------------G-----------------A------------|
B|----------------------------------------------------|
G|---7-7-7-7-7-7-7-7----------------------------------|
D|---7-7-7-7-7-7-7-7---5-5-5-5-5-5-5-5---7-7-7-7-7-7--|
A|---5-5-5-5-5-5-5-5---5-5-5-5-5-5-5-5---7-7-7-7-7-7--|
E|---------------------3-3-3-3-3-3-3-3---5-5-5-5-5-5--|

Riff 1: (2x) muted fast                                  
e|---D-----------------D-----------------G------------------|
B|----------------------------------------------------------|
G|---7-x-x-x-x-x-x-7---7-x-x-x-x-x-x-7----------------------|
D|---7-x-x-x-x-x-x-7---7-x-x-x-x-x-x-7---5-x-x-x-x-x-x-5----|
A|---5-x-x-x-x-x-x-5---5-x-x-x-x-x-x-5---5-x-x-x-x-x-x-5----|
E|---------------------------------------3-x-x-x-x-x-x-3----|

E|----A----------------------|
B|---------------------------|
G|---------------------------|
D|----7-x-x-7-x-x-x-7-x-7----|
A|----7-x-x-7-x-x-x-7-x-7----|
E|----5-x-x-5-x-x-x-5-x-5----|

D                         D
 So all you little ladies. Be sure to choose the right guys. 
G                             A
 You'll come back to me maybe. I'll shower you with lies. 
D                       D
 Got a lotta heart ache. He's a fucken weasel. 
G                            A
 Decisions make my mind ache. Wanna make a deal. 

Pre-Chorus: (2x)-Clean Guitar
E|---D-----------------------G---------------A--------------|
B|----------------------------------------------------------|
G|---7-7-7-7-7-7-7-7-7-7-7----------------------------------|
D|---7-7-7-7-7-7-7-7-7-7-7---5-5-5-5-5-5-5---7-7-7-7-7-7-7--|
A|---5-5-5-5-5-5-5-5-5-5-5---5-5-5-5-5-5-5---7-7-7-7-7-7-7--|
E|---------------------------3-3-3-3-3-3-3---5-5-5-5-5-5-5--|

D
Ease away the problems and the pain. 
The girl chose the guy that makes you wanna kick and scream. 
G
All along, you wish that she would stay. 
A
Fuck the guy that took and ran away, yeah. 

Chorus: (1x)
E|---D-----------------------G---------------A--------------|
B|----------------------------------------------------------|
G|---7-7-7-7-7-7-7-7-7-7-7----------------------------------|
D|---7-7-7-7-7-7-7-7-7-7-7---5-5-5-5-5-5-5---7-7-7-7-7-7-7--|
A|---5-5-5-5-5-5-5-5-5-5-5---5-5-5-5-5-5-5---7-7-7-7-7-7-7--|
E|---------------------------3-3-3-3-3-3-3---5-5-5-5-5-5-5--|

D
He's a player, diarrhea giver, tried to grow his hair out, 
when friends were listening to Slayer. 
G
I would like to find him Friday night. 
A
Hanging out with mom and trying on his father's tights.

Post-Chorus: (6x)
E|---15-14----------------------|
B|------------15----------------|
G|-------------------12-12-12---|
D|------------------------------|
A|------------------------------|
E|------------------------------|

(1)              (2)             (3)            (4)  
Life just sucks, I lost the one. I'm giving up, she found someone.
(5)                  (6)
There's plenty more. Girls are such a drag. 

[Bass Solo Type Thing] PLAY D then G clean (4x)

Post-Chorus: (6x)
E|---15-14----------------------|
B|------------15----------------|
G|-------------------12-12-12---|
D|------------------------------|
A|------------------------------|
E|------------------------------|

(1)              (2)             (3)             (4)
Fuck this place, I lost the war. I hate you all, your mom's a whore. 
(5)             (6)
Where's my dog? Cause girls are such a drag. 

End on Intro(Slightly Different)
E|----------------------------------------------------------|
B|----------------------------------------------------------|
G|----------------------------------------------------------|
D|----------------------------------------------------------|
A|-9-9-9-9-9------------10-10-10-10--9-9-9-9-9--------------|
E|------------10-10-10--------------------------10-10-10-10-|

or play:
CAN ALSO SUBSTITUTE THIS FOR THE ABOVE INTRO (they sound the same)
E|-----------------------------------------------------------|        
B|-----------------------------------------------------------|        
G|-----------------------------------------------------------|        
D|-4-4-4-4-------5-5-5-4-4-4---------------4-4-4-------------|       
A|---------5-5-5-------------5-5-5-5-----------------4-4-4h5-|   
E|-----------------------------------3-3-3-------5-5---------|         
7) Adamís Song
Riff 1
|--------------------|-------------------|------------------|------------------|
|--------------------|-------------------|------------------|------------------|
|--------------------|-------------------|------------------|------------------|
|----4--0-----4--0-|---4--0-----4--0-|--4--0-----4--0-|--4--0-----4--0-|
|-2--------2--------|-0--------0-------|------------------|------------------|
|--------------------|-------------------|-3--------3------|-0--------3------|
Riff 2
|----------------------------|----------------------------|----------------------------|
|----------------------------|----------------------------|----------------------------|
|----------------------------|----------------------------|----------------------------|
|-4--4--4--4--4--4--4--4-|----------------------------|----------------------------|
|-5--5--5--5--5--5--5--5-|-5--5--5--5--5--5--5--5-|-9--9--9--9--9--9--9--9-|
|----------------------------|-3--3--3--3--3--3--3--3-|-7--7--7--7--7--7--7--7-|

|----------------------------|
|----------------------------|
|----------------------------|
|----------------------------|
|-5--5--5--5--5--5--5--5-|
|-3--3--3--3--3--3--3--3-|
Riff 3
|-------------------|-------------------|--------------------|--------------------|
|-------------------|-------------------|--------------------|--------------------| 
|-------0--------0-|-------0--------0-|--------------------|--------------------|
|----7--------7----|----9--------9----|----4--0-----4--0-|----4--0-----4--0-|
|-5--------5-------|-7--------7-------|-2--------2--------|--------------------|
|-------------------|-------------------|--------------------|-3--------3--------|
Riff 4
|----------------------------|----------------------------|
|----------------------------|----------------------------|
|-7--7--7--7--7--7--7--7-|-9--9--9--9--9--9--9--9s|
|----------------------------|----------------------------|
|-5--5--5--5--5--5--5--5-|-7--7--7--7--7--7--7--7s|
|----------------------------|----------------------------|

|----------------------------|----------------------------|
|----------------------------|-8--8--8--8--8--8--8--8-|
|-4--4--4--4--4--4--4--4-|----------------------------|
|----------------------------|-5--5--5--5--5--5--5--5-|
|-2--2--2--2--2--2--2--2-|----------------------------|
|----------------------------|----------------------------|

|----------------------------|----------------------------|----------------------------|
|----------------------------|----------------------------|----------------------------|
|-7--7--7--7--7--7--7--7-|-9--9--9--9--9--9--9--9-|-4--4--4--4--4--4--4--4-|
|----------------------------|----------------------------|----------------------------|
|-5--5--5--5--5--5--5--5-|-7--7--7--7--7--7ó7-7-|-2--2--2--2--2--2--2--2-|
|----------------------------|----------------------------|----------------------------|

|----------------------------|
|----------------------------|
|----------------------------|
|-5--5--5--5--5--5--5--5-|
|----------------------------|
|-3--3--3--3--3--3--3--3-|
Riff 5
|----------------------------|----------------------------|
|----------------------------|----------------------------|
|-7--7--7--7--7--7--7--7-|-9--9--9--9--9--9--9--9s|
|----------------------------|----------------------------|
|-5--5--5--5--5--5--5--5-|-7--7--7--7--7--7--7--7s|
|----------------------------|----------------------------|

|--------------------------------|--------------------------------|
|--------------------------------|--------------------------------|
|11-11-11-11-11-11-11-11-|12-12-12-12-12-12-12-12-|
|--------------------------------|--------------------------------|
|-9--9---9--9---9--9---9---9-|10-10-10-10-10-10-10-10-|
|--------------------------------|--------------------------------|
Riff 6
|-------------------------|--------------------------|-------------------------|
|-------------------------|--------------------------|-------------------------|
|-------0--------0-------|-------0--------0--------|-------0--------0-------|
|----4--------4--------4-|----4--------4--------4-|----4--------4--------4-|
|-5--------5--------5----|-5--------5--------5----|-5--------5--------5----|
|--------------------------|-------------------------|--------------------------|

|--------------------------|
|--------------------------|
|-------0------------------|
|----4-----0-----0-----0-|
|-5-----------5-----5-----|
|--------------------------|

8) All The Small Things
Intro (x2):
e-----------------------------------------------------------|
B-----------------------------------------------------------|
G---------------------5-------10-----------------------------|
D---(5)-----(3)-----5 (x8)10 (x8)5--------3XXXXXX33---|
A---(5)-----(3)-----3--------8--------5 (x8)-3XXXXXX33---|
E---(3)-----(1)-------------------------3--------1XXXXXX11---|
Verse (x4): (palm mute)
e-----------------------------------------------------------|    
B-----------------------------------------------------------|
G---5-------------------------------------------------------|
D---5 (x8)---5--------3--------5----------------------------|
A---3--------5 (x8)---3 (x8)---5 (x8)-----------------------|
E------------3--------1--------3----------------------------|
"Say it ain't so..."  (let ring)
e-----------------|
B-----------------|
G-----5-----------|
D-----5-----------|
A-----3-----------|
E-----------------|
Chorus (x2):
e----------------------------------------------------------|
B----------------------------------------------------------|
G---5------------------------------------------------------|
D---5 (x12)5--------3-----------------------------------|
A---3---------5 (x8)-3 (x8)------------------------------|
E--------------3--------1-----------------------------------|
Repeat Intro all same as 1st time except change as follows:
e-----------------------|
B-----------------------|
G---10--------10--------|
D---10 (x4)---10 (x4)---|             
A---8----------7--------|             
E-----------------------|
Repeat verse (x4)
Break @ 1:45 (palm mute):
e--------------|
B--------------|
G---5----------|
D-------5------|
A--------------|
E--------------|
Outro(x4):
e-------------------------------------------|
B-------------------------------------------|
G---5---------------------------------------|
D---5 (x12)---5----------3--------------|
A---3------------5 (x8)---3 (x8)---------|
E-----------------3----------1--------------|
9) The Party Song
Verse
Chords (All through verse)
-------------
-------------
----9--6--9--
-9--9--6--9--
-9--7--4--7--
-7-----------

Verse
Chords (End of verse)
--------------------
--------------------
----9--6--9--11-----
-9--9--6--9--11--9--
-9--7--4--7--9---9--
-7---------------7--

Chorus
-----------------------------------------------
-----------------------------------------------
----------------------------------------------- then
-----------------------------------------------
-9--7--6-----7--6-----7--6-----7--6------------
----------7--------7--------7--------7--7--9---
Muted
---------------------------
---------------------------
-----9--6--9-----9--6--9--- then
--9--9--6--9--9--9--6--9---
--9--7--4--7--9--7--4--7---
--7-----------7------------

-----------------------------------------------------------
-----------------------------------------------------------
-----------------------------------------------------------
-----------------------------------------------------------
--9-7-6---7-6-----7-6---7-6-----7-6---7-6-----7-6---7-7----
--------9-----9-7-----9-----9-7-----9-----9-7-----9-----9-7

10) Mutt
INTRO 

e|--------------------------------------------------------------------
B|------2--------2------2------2------2-------------------------------
G|----2--------2------2------2------2---------------------------------
D|--2--------2------2------0------0-----------------------------------
A|--------------------------------------------------------------------
E|--------------------------------------------------------------------

VERSE (option 1)quiet-repeated
e|--------------------------------------------------------------------
B|--------------------------------------------------------------------
G|--------------------------------------------------------------------
D|--7---7---7---------------------------------------------------------
A|--7---7---7---------------------------------------------------------
E|--5---5---5---------------------------------------------------------

VERSE (option 2)quiet
e|--------------------------------------------------------------------
B|--------------------------------------------------------------------
G|------------------7-------7-----------------------------------------
D|--7-------4-------7-------7-----------------------------------------
A|--7-------4-------5-------9-----------------------------------------
E|--5-------2---------------------------------------------------------

CHORUS quiet...pretty sure
e|--------------------------------------------------------------------
B|--------------------------------------------------------------------
G|-----------------7--------7-----------------------------------------
D|--7------4-------7--------7-----------------------------------------
A|--7------4-------5--------9-----------------------------------------
E|--5------2----------------------------------------------------------

OUTRO (palm mute)
e|--------------------------------------------------------------------
B|--------------------------------------------------------------------
G|--------4-----7-----------------------------------------------------
D|--7-----4-----7-----11----------------------------------------------
A|--7-----2-----5-----11----------------------------------------------
E|--5-----------------9-----------------------------------------------

11) Wendy Clear
Riff 1
e:---------------------------------------------------------------
B:---------------------------------------------------------------
G:---------------------------------------------------------------
D:-------5------0-3-2--------------------------------------------
A:----3------3---------------------------------------------------
E:---------------------------------------------------------------
Riff 2
e:---------------------------------------------------------------
B:---------------------------------------------------------------
G:---------------------------------------------------------------
D:-5555555555555555----------------------------------------------
A:-3333333333333333-5-333333333-7777-333-5-----------------------
E:------------------3-111111111-5555-111-3-----------------------
Riff 3
e:---------------------------------------------------------------
B:---------------------------------------------------------------
G:---------------------------------------------------------------
D:-----------55555555--------------------------------------------
A:-5555-3333-33333333--------------------------------------------
E:-3333-1111-----------------------------------------------------
Riff 4
e:---------------------------------------------------------------
B:---------------------------------------------------------------
G:---------------------------------------------------------------
D:-----------5555------------------------------------------------
A:-7777-3333-3333-555555555--------------------------------------
E:-5555-1111------333333333--------------------------------------
Riff 5
e:---------------------------------------------------------------
B:---------------------------------------------------------------
G:---------------------------------------------------------------
D:---------55----------------------------------------------------
A:---77-33-33-55-------------------------------------------------
E:---55-11----33-------------------------------------------------
Riff 6
e:---------------------------------------------------------------
B:---------------------------------------------------------------
G:---------------------------------------------------------------
D:-55555555------------------------------------------------------
A:-33333333------------------------------------------------------
E:---------------------------------------------------------------
Riff 7
e:---------------------------------------------------------------
B:---------------------------------------------------------------
G:---------------------------------------------------------------
D:-----------55555555--------------------------------------------
A:-5555-3333-33333333--------------------------------------------
E:-3333-1111-----------------------------------------------------
Riff 8
e:---------------------------------------------------------------
B:---------------------------------------------------------------
G:---------------------------------------------------------------
D:----------5----------------------------------------------------
A:-5----3---3----------------------------------------------------
E:-3----1--------------------------------------------------------

Order:
Riff 1 x8
Riff 2 x2
Riff 3 x2
Riff 4 x2
Riff 1 x6
Don't play until the 2nd verse is over
Riff 3 x2
Riff 4 x2
Riff 5 x2 (palm mute)
Riff 6 x1
Riff 5 x2 (palm mute)
Riff 1 x8
Riff 3 x2 (clean)
Riff 4 x2 (clean)
Riff 6 x1
Riff 7 x2
Riff 8 x1
12) Anthem
Intro:
e---------------------------------------------------------------
B-----------------------44444-55555-------------55555---------
G-44444-44444-44444-44444------------44444---------
D-44444-44444-44444-44444-44444-44444-44444-
A-22222-22222-22222-22222-44444-22222-44444-
E----------------------------------------------22222-----------22222

Verse
e-----------------------------------------------------------------------
B------------------------------------------------------------------------
G-44444-44444-44444-44444-------------------------------------
D-44444-44444-44444-44444--22222-44444-22222-44444
A-22222-22222-22222-22222--22222-44444-22222-44444
E----------------------------------------------00000-22222-00000-22222

"But good things come to those"
e-----------------------------------------------------
B-----------------------------------------------------
G----------------------------------------------------
D-66666666-4444444-222222222--444444444
A-66666666-4444444-222222222--444444444-
E-44444444-2222222-000000000--222222222

Fill:
e------------------------------
B-----------------------------
G-44444-44444-44444----
D-44444-44444-44444--2
A-22222-22222-22222--2
E-----------------------------------0

"Lies, Lies"
e--------------------------------------------------------------------------------------
B------------------------------------------------------------------------------------
G4444444-444444444-44444444-44444444------------------------------
D4444444-444444444-44444444-44444444-2222-4444-2222-4444
A2222222-222222222-22222222-22222222-2222-4444-2222-4444
E--------------------------------------------------------------------0000-2222-0000-2222-

"You Don't Belong...I time bomb"
e------------------------------------------------------
B-----------------------------------------------------
G-44444444----------------------------------------
D-44444444--22222222-66666666-44444444
A-22222222--22222222-66666666-44444444
E-------------------00000000-44444444-22222222

Solo:
e-------------------------------------
B------------------------------------
G------------------------------------
D----2---4--2-------2-------2-----
A------0--------0-2-----0-4----0-2
E------------------------------------

Never Give Up Novices





Comments


Popular *Blink 182* tabs & chords
Anthem Bass Tabs
Apple Shampoo 5 Bass Tabs
Dont 1 Bass Tabs
Apple Shampoo Chords
Family Reunion 1 Drum Tabs
Dont 1 Tabs
Feeling This Tabs
Macca Is Gay Tabs
Reckless Abandon Tabs
Tv 1 Tabs


Song lyrics



↑ Back to top | Tablatures and chords are parodies/interpretations of the original songs. You may use it for private study, scholarship, research or language learning purposes only
© 2014 AZChords.com Contact us | Privacy policy | DMCA | Add/correct tabs | Request tabs | Top 50 tabs