» » »

*Blink 182*, Emo Tabs (ver.1)

Artists:  A B C D E F G H I J K L M N O P Q R S T U V W X Y Z # 

Emo Tabs (ver.1)

*Blink 182* Tabs
Rating:
0/5 (0 votes)
Emo lessons Tabs too difficult? Try these video lessons and learn fast
                blink 182
emo

PLAY THE HARMONIC TILL THE RIFF STARTS

e|-------|
B|-------|
G|-------|
D|-------|
A|--<7>--|
E|-------|

RIFF 1
e|------------------------------------------|
B|------------------------------------------|
G|------------------------------------------|
D|---7-6----7-6---------7-6----7-6----------|
A|-7------7-----7-9---7------7------7-9--7--|
E|------------------------------------------|

  VERSE  
e|----------|----------|
B|----------|----------|
G|-4-4-4-4--|-6-6------|
D|-4-4-4-4--|-6-6-7-7--|
A|-2-2-2-2--|-4-4-7-7--|
E|----------|-----5-5--|

VERSE  (2X)
RIFF 1 (1X)
VERSE  (2X)
CHORUS (PLAY THE INTRO <7>)
RIFF 1 (1X)
VERSE  (2X)
RIFF 1 (1X)
CHORUS (PLAY THE INTRO <7>)

BRIDGE
e|-------------|-------------|-------------|-------------|--------|
B|-------------|-------------|-------------|-------------|--------|
G|-------------|-------------|-------------|-------------|--------|
D|-------------|-------------|-------------|-------------|--------|
A|-11-11-11-11-|-12-12-12-12-|-13-13-13-13-|-14-14-14-14-|--2-----|
E|-------------|-------------|-------------|-------------|-----0--|

BASS RIFF  (4X)
|-------------|----------|----------|
|-------------|----------|----------|
|-2-----------|----------|-0-0-0-0--|
|----0-0-0-0--|-2-2-2-2--|----------|

ENDING CHORUS (8X)
  SHES BETTER OFF SLEEPING......
e|---------|-------------------------|
B|---------|-------------------------|
G|---------|-------------------------|
D|---------|--2-2--4-4-4-4--7-7-7-7--|
A|-2-------|--2-2--4-4-4-4--7-7-7-7--|
E|----0----|--0-0--2-2-2-2--5-5-5-5--|

END ON
e|-------|
B|-------|
G|-------|
D|---2---|
A|---2---|
E|---0---|
            
Submit corrections

comments powered by Disqus
↑ Back to top | *Blink 182* Tabs for Emo. Lyrics for acoustic guitar and electric guitar. Tablatures and chords are parodies/interpretations of the original songs. You may use it for private study, scholarship, research or language learning purposes only