» » »

*Blink 182*, Easy Target Tabs (ver.2)

Artists:  A B C D E F G H I J K L M N O P Q R S T U V W X Y Z # 

Easy Target Tabs (ver.2)

*Blink 182* Tabs
Rating:
0/5 (0 votes)
Easy Target lessons Tabs too difficult? Try these video lessons and learn fast
                Mxtabs ID: noonecouldseeme


Intro:
---------------------------------------------------
---------------------------------------------------
---------------------------------------------------
-4-4-4-4--4-4-4-4--7-7-7-7--2-2-2-2----------------
-4-4-4-4--4-4-4-4--7-7-7-7--2-2-2-2----------------
-2-2-2-2--2-2-2-2--5-5-5-5--0-0-0-0----------------

Verse:
All her signals are getting lost in the ether...
---------------------------------------------------
---------------------------------------------------
---------------------------------------------------
-11-11-11-11-11-11-11-11---9-9/11-11\7-------------
--x--x--x--x--x--x--x--x---x-x--x--x-x-------------
--9--9--9--9--9--9--9--9---7-7/-9--9\5-------------

Chorus:
Holly's looking dry, looking for...
---------------------------------------------------
---------------------------------------------------
---------------------------------------------------
-4-4-4-4--4-4-4-4--7-7-7-7--2-2-2-2----------------
-4-4-4-4--4-4-4-4--7-7-7-7--2-2-2-2----------------
-2-2-2-2--2-2-2-2--5-5-5-5--0-0-0-0----------------

Verse:
She's got a mission, and I'm collateral damage...
---------------------------------------------------
---------------------------------------------------
---------------------------------------------------
-11-11-11-11-11-11-11-11---9-9/11-11\7-------------
--x--x--x--x--x--x--x--x---x-x--x--x-x-------------
--9--9--9--9--9--9--9--9---7-7/-9--9\5-------------

Chorus:
Holly's looking dry, looking for...
---------------------------------------------------
---------------------------------------------------
---------------------------------------------------
-4-4-4-4--4-4-4-4--7-7-7-7--2-2-2-2----------------
-4-4-4-4--4-4-4-4--7-7-7-7--2-2-2-2----------------
-2-2-2-2--2-2-2-2--5-5-5-5--0-0-0-0----------------

Interlude:
Better run, run, run, run...
---------------------------------------------------
---------------------------------------------------
-7-7-7-7--7-7-7-7----------------------------------
-7-7-7-7--7-7-7-7--7-7-7-7--2-2-2-2----------------
-5-5-5-5--5-5-5-5--7-7-7-7--2-2-2-2----------------
-------------------5-5-5-5--0-0-0-0----------------

Outro:
---------------------------------------------------
---------------------------------------------------
---------------------------------------------------
-4/6/7-7-7/9-11-11/12-9-9--------------------------
-x-x-x-x-x-x--x--x--x-x-x--------------------------
-2/4/5-5-5/7--9--9/10-7-7--------------------------


another great blink album
another great blink song
check them all out!
            
Submit corrections

comments powered by Disqus
↑ Back to top | *Blink 182* Tabs for Easy Target. Lyrics for acoustic guitar and electric guitar. Tablatures and chords are parodies/interpretations of the original songs. You may use it for private study, scholarship, research or language learning purposes only