» » »

*Blink 182*, Easy Target Tabs (ver.1)

Artists:  A B C D E F G H I J K L M N O P Q R S T U V W X Y Z # 

Easy Target Tabs (ver.1)

*Blink 182* Tabs
 Rating:
4/5 (4 votes)
Easy Target lessons Tabs too difficult? Try these video lessons and learn fast
1
                Blink 182
Easy Target (New Album Due 18 November 2003,From Leaked Mp3)

Drums,Then ...

Intro 

E|--------------------------------------------------|
B|--------------------------------------------------|
G|--------------------------------------------------|
D|-4-~---------7-~--------2-~-----------------------|
A|-4-----------7----------2-------------------------|
E|-2-----------5----------0-------------------------| (X4) With Distortion

Verse

E|--------------------------------------------------|
B|--------------------------------------------------|
G|--6-~-------4-~------6-~------2-~-----------------|
D|--6---------4--------6--------2-------------------|
A|--4---------2--------4--------0-------------------|
E|------------------------------0-------------------| (X4) No Distortion

Chorus

E|--------------------------------------------------|
B|--------------------------------------------------|
G|--------------------------------------------------|
D|-4-~---------7-~--------2-~-----------------------|
A|-4-----------7----------2-------------------------| 
E|-2-----------5----------0-------------------------| (X4) With Distortion

During The Run Run Thingy

E|--------------------------------------------------|
B|--------------------------------------------------|
G|-7-~----------------------------------------------|
D|-7----7-~-----------------------------------------|
A|-5----7-------------------------------------------|
E|------5-------------------------------------------| With Distortion

Ending

E|--------------------------------------------------|
B|--------------------------------------------------|
G|--------------------------------------------------|
D|--------------------------------------------------|
A|----------------------4--4--5--2------------------|
E|-2--4--5--7--5--5--7------------------------------| (Try Vibrating The Strings) No Distortion 

Lyrics

All her signals are getting lost in the ether,
she's a landslide with a city beneath her 
So take a good look, so you'll never forget it
Take a deep breath,
I know I'm gonna regret it (That's what she wanted)

Holly's looking dry looking for an easy target
Let her slit my throat give her ammo if she'll use it
Caution on the road lies lies and hidden danger.
Southern California's breeding mommy's little monster.

She's got a mission, and I'm collateral damage.
(That's what she wanted) She's the flower that you
place on my casket.(That's what she wanted)
Savor the moment cause the memory's fleeting.
Take a photograph,as the last train is leaving.

Holly's looking dry looking for an easy target
Let her slit my throat give her ammo if she'll use it
Caution on the road lies lies and hidden danger.
Southern California's breeding mommy's little monster.

Better run run run run run 
(Holly let me out) Better run run run run run
(Holly let me out) Better run run run run run
(Holly let me out) Better run run run run run run run (Holly let me out)

Gordonzz.
12 November.
            
Submit corrections

comments powered by Disqus
↑ Back to top | *Blink 182* Tabs for Easy Target. Lyrics for acoustic guitar and electric guitar. 1 Tablatures and chords are parodies/interpretations of the original songs. You may use it for private study, scholarship, research or language learning purposes only