» » »

*Blink 182*, Dysentery Gary Tabs (ver.5)

Artists:  A B C D E F G H I J K L M N O P Q R S T U V W X Y Z # 

Dysentery Gary Tabs (ver.5)

*Blink 182* Tabs
 Rating:
4/5 (4 votes)
Dysentery Gary lessons Tabs too difficult? Try these video lessons and learn fast
1
                (Live)
dysentery gary live
preformed by blink 182


intro (4x)
e---------------------------------------------------------------------|
B---------------------------------------------------------------------|
G---------------------------------------------------------------------|
D-4-4-4-0-0-0-5-5-5-4-4-4-0-0-0-------4-4-4---------------------------|
A------------------------------------------------4-4-4-5-5-5----------|
E-------------------------------3-3-3------5-5-5----------------------|

verse 1 (2x)
e-------------------------------------------------------------------------|
B-------------------------------------------------------------------------|
G-------------7----------------7------------------------------------------|
D--7~~7-7-7-7-7~~~~~7~~7-7-7-7-7~~~~~------------5---------------7--------|
A--5~~5-5-5-5-5~~~~~5~~5-5-5-5-5~~~~~-5~~5-5-5-5-5~~~-7~~7-7-7-7-7~~~~----|
E-------------------------------------3~~3-3-3-3-3~~~-5~~5-5-5-5-5~~~~----|
      * * * *          * * * *           * * * *         * * * *
               gotta lotta heartache

pre chours
e-----------------------------------------------------|
B-----------------------------------------------------|
G-----------------------------------------------------|
D---7-7-7-7-7-7-7-7-----------------------------------|
A--5-5-5-5-5-5-5-5----5-5-5-5---7-7-7-7---------------|
E--------------------3-3-3-3---5-5-5-5----------------|

chours
e-----------------------------------------------------------------|
B-----------------------------------------------------------------|
G--7--------------------------------------------------------------|
D--7(14x)--5------7-----------------------------------------------|
A--5-------5(7x)--7(7x)-------------------------------------------|
E----------3------5-----------------------------------------------|
hes a player diarrear giver

e-----------------------------------------------------------------|
B-----------------------------------------------------------------|
G----------------------777777777--444444444-----------------------|
D-5555555555-777777777-777777777--444444444-555555555-77777777----|
A-5555555555-777777777-555555555--222222222-555555555-77777777----|
E-3333333333-555555555----------------------333333333-55555555----|
life just sucks, i lost the one, im giving up

intro (2x)
e---------------------------------------------------------------------|
B---------------------------------------------------------------------|
G---------------------------------------------------------------------|
D-4-4-4-0-0-0-5-5-5-4-4-4-0-0-0-------4-4-4---------------------------|
A------------------------------------------------4-4-4-5-5-5----------|
E-------------------------------3-3-3------5-5-5----------------------|

verse 2 (2x)
e-------------------------------------------------------------------------|
B-------------------------------------------------------------------------|
G-------------7----------------7------------------------------------------|
D--7~~7-7-7-7-7~~~~~7~~7-7-7-7-7~~~~~------------5---------------7--------|
A--5~~5-5-5-5-5~~~~~5~~5-5-5-5-5~~~~~-5~~5-5-5-5-5~~~-7~~7-7-7-7-7~~~~----|
E-------------------------------------3~~3-3-3-3-3~~~-5~~5-5-5-5-5~~~~----|
      * * * *          * * * *           * * * *         * * * *
                so all you little ladies

pre chours (2x)
e----------------------------------------------------|
B----------------------------------------------------|
G----------------------------------------------------|
D---7-7-7-7-7-7-7-7----------------------------------|
A--5-5-5-5-5-5-5-5----5-5-5-5---7-7-7-7--------------|
E--------------------3-3-3-3---5-5-5-5---------------|


chours
e-----------------------------------------------------------------|
B-----------------------------------------------------------------|
G--7--------------------------------------------------------------|
D--7(14x)--5------7-----------------------------------------------|
A--5-------5(7x)--7(7x)-------------------------------------------|
E----------3------5-----------------------------------------------|
hes a player diarrear giver

e--15-14---------15-15-14--------15-15-14-------15-15-14----------|
B-------15---------------15--------------15-------------15--------|
G----------12-12------------12-12----------12-12----------12-12---|
D-----------------------------------------------------------------|
A-----------------------------------------------------------------|
E-----------------------------------------------------------------|
life just sucks, im giving up

interlude

e--------------------------------------------------------------|
B--------------------------------------------------------------|
G--------------------------------------------------------------|
D-0-5-4~~~-2---0-5-4~~~-2----0-5-4~~~-2---0-5-4~~~-2~~~~-------|
A--------------------------------------------------------------|
E-----------3-5----------3-5-----------3-5---------------------|

outro
e-----------------------------------------------------------------|
B-----------------------------------------------------------------|
G----------------------777777777--444444444-----------------------|
D-5555555555-777777777-777777777--444444444-555555555-77777777----|
A-5555555555-777777777-555555555--222222222-555555555-77777777----|
E-3333333333-555555555----------------------333333333-55555555----|
f**k this place, i lost the war, i hate you all

e------------------------------------------------------------------------|
B------------------------------------------------------------------------|
G--------------------------------------7~--------------------------------|
D-4-4-4-0-0-0-5-5-5-4-4-4-4-4-4--------7~--------------------------------|
A------------------------------0-0-0-0-5~--------------------------------|
E------------------------------------------------------------------------|
            
Submit corrections

comments powered by Disqus
↑ Back to top | *Blink 182* Tabs for Dysentery Gary. Lyrics for acoustic guitar and electric guitar. 1 Tablatures and chords are parodies/interpretations of the original songs. You may use it for private study, scholarship, research or language learning purposes only