>
 >
Dysentary Gary 2

Dysentary Gary 2 Guitar Tabs

*Blink 182* - Dysentary Gary 2 chords, tabs, tablatures, lyrics

Guitar lessons | Add/correct | Request | Top 50 tabs Artists:  A B C D E F G H I J K L M N O P Q R S T U V W X Y Z 0-9

Dysentary Gary 2 Guitar Tabs – *Blink 182*

CD, Sheet music, Poster

Do you like Dysentary Gary 2? Share with your friends now
Bass TabsDrum TabsTabsTabs v2Tabs v3
Dysentery Gary

Intro x4      
E|-------------------------------------------------------------|
B|-------------------------------------------------------------|
G|-------------------------------------------------------------|
D|-4-4-4-------5-5-5-4-4-4-------------4-4-4-------------------|
A|-------5-5-5-------------5-5-5-------------0-0-0-4-4-4-4-4-4-|
E|-------------------------------5-5-5-------------------------|

Verse x2
E|-----------------------------------------------------------------|
B|-----------------------------------------------------------------|
G|-----------------------------------------------------------------|
D|-7---------6--7---------6--5---------5--2---------2---------2--0-|
A|-7---------6--7---------6--5---------5--2---------2---------2--0-|
E|-5-0-0-0-0-4--5-0-0-0-0-4--3-0-0-0-0-3--0-0-0-0-0-0-0-0-0-0-0--0-|

Interlude x1
E|-----------------------------------|
B|-3-3-3-3-3-3-3-3--3-3-3-3--2-2-2-2-|
G|-2-2-2-2-2-2-2-2--0-0-0-0--2-2-2-2-|
D|-0-0-0-0-0-0-0-0--0-0-0-0--2-2-2-2-|
A|---------------------------0-0-0-0-|
E|-----------------------------------|

Pre Chorus x1
E|--------------------------------------------------------------------|
B|--------------------------------------------------------------------|
G|--------------------------------------------------------------------|
D|-77777777777777777777--5555555555--7777777777-----------------------|
A|-77777777777777777777--5555555555--7777777777-----------------------|
E|-55555555555555555555--3333333333--5555555555-----------------------|

Chorus x6
E|-15-14-------------|
B|-------15----------|
G|----------12-12-12-|
D|-------------------|
A|-------------------|
E|-------------------|

Intro x2
Verse x2
Interlude x2
Pre Chorus x2
Chorus x6

Bridge x1
E|------------------------------------------------|
B|------------------------------------------------|
G|------------------------------------------------|
D|-4^5-4-2------4^5-4-2---0--4^5-4-2------4^5-4---|
A|-5---------0--5-------0----5---------0--5-------|
E|---------3-------------------------3----------3-|


Chorus x1 and
Chorus2 x1
E|-------------------------------------------------------|
B|-------------------------------------------------------|
G|-------------------77777777-44444444-------------------|
D|-55555555-77777777-77777777-44444444-5555555--77777777-|
A|-55555555-77777777-55555555-22222222-55555555-77777777-|
E|-33333333-55555555-------------------33333333-55555555-|

End x1
E|-----------------------------------|
B|-----------------------------------|
G|-----------------------------------|
D|-4-4-4-------5-5-5-4-4-4---------7-|
A|-------5-5-5-------------5-5-5/3-7-|
E|---------------------------------5-|





Comments


Popular *Blink 182* tabs & chords
After Midnight 4 Bass Tabs
Carousel Live 2 Bass Tabs
Every Time I Look For You Drum Tabs
Cacophony 1 Tabs
Damn It Tabs
Dumpweed 8 Tabs
Every Time I Look For You 1 Tabs
First Date 4 Tabs
Romeo And Rebecca 2 Tabs
Waggy 1 Tabs


Song lyrics



↑ Back to top | Tablatures and chords are parodies/interpretations of the original songs. You may use it for private study, scholarship, research or language learning purposes only
© 2014 AZChords.com Contact us | Privacy policy | DMCA | Add/correct tabs | Request tabs | Top 50 tabs