» » »

*Blink 182*, Dumpweed Tabs (ver.11)

Artists:  A B C D E F G H I J K L M N O P Q R S T U V W X Y Z # 

Dumpweed Tabs (ver.11)

*Blink 182* Tabs
Rating:
0/5 (0 votes)
Dumpweed lessons Tabs too difficult? Try these video lessons and learn fast
                -------------------------------------------------------------------------------
-------------------------------------------------------------------------------

Tuning: Standard
Distortion: High


Intro Riff 1:
e|---------------------------------------------------------------------------|
B|---------------------------------------------------------------------------|
G|---------------------------------------------------------------------------|
D|-----6-6h7p6-------------6-6h7p6-----------6-6h7p6-------------6-6h7p6-9---|
A|-----------------9-5-----------------9-----------------9-7--------------0-9|
E|---0---------7-5-------0---------7-5-----0---------7-5-------0-------------|


Intro Riff 2:
e|---4-0----4-0----2-0----2-0----4-0----4-0----5-0---5-0---------------------|
B|-------0------0------0------0------0------0------0-----0-------------------|
G|---------------------------------------------------------------------------|
D|---------------------------------------------------------------------------|
A|---------------------------------------------------------------------- x2 -|
E|---------------------------------------------------------------------------|


Verse 1:
      (x8)     (x5)   (x8)     (x5)      (x8)     (x5)   (x8)     (x5)
e|---------------------------------------------------------------------------|
B|---------------------------------------------------------------------------|
G|-------------44444-----------44444---2-22222222-44444--22222222-44444------|
D|--2-22222222-44444--22222222-44444---2-22222222-44444--22222222-44444------|
A|--2-22222222-22222--22222222-22222---0-00000000-22222--00000000-22222- x2 -|
E|--0-00000000--------00000000-----------------------------------------------|
PM:   ........ .....  ........ .....     ........ .....  ........ .....

It's understood, I said it many ways
Too scared to run, I'm too scared to stay
I said I'd leave, I could never leave her
And if I did, you know I'd never cheat her

But this I ask, it's what I want to know
How would you feel, if I should choose to go
Another guy, you think it'd be unlikely
Another guy, you think he'd wanna fight me


Intro Riff 1:
e|---------------------------------------------------------------------------|
B|---------------------------------------------------------------------------|
G|---------------------------------------------------------------------------|
D|-----6-6h7p6-------------6-6h7p6-----------6-6h7p6-------------6-6h7p6-9---|
A|-----------------9-5-----------------9-----------------9-7--------------0-9|
E|---0---------7-5-------0---------7-5-----0---------7-5-------0-------------|


Chorus (part1):
     (x8)      (x8)      (x8)      (x8)
e|---------------------------------------------------------------------------|
B|---------------------------------------------------------------------------|
G|-------------44444444------------44444444----------------------------------|
D|---22222222--44444444--77777777--44444444----------------------------------|
A|---22222222--22222222--77777777--22222222----------------------------------|
E|---00000000------------55555555--------------------------------------------|

She's a dove, she's a f**king nightmare
Unpredictable, it's my mistake to stay here


Chorus (part2):
     (x8)      (x8)      (x8)     
e|---------------------------------------------------------------------------|
B|---------------------------------------------------------------------------|
G|-------------44444444------------4---2-------------------------------------|
D|---22222222--44444444--77777777--4---2-------------------------------------|
A|---22222222--22222222--77777777--2---0-------------------------------------|
E|---00000000------------55555555--------------------------------------------|

On the go, it's way too late to play
I need a girl that I can train


Intro Riff 2:
e|---4-0----4-0----2-0----2-0----4-0----4-0----5-0---5-0---------------------|
B|-------0------0------0------0------0------0------0-----0-------------------|
G|---------------------------------------------------------------------------|
D|---------------------------------------------------------------------------|
A|---------------------------------------------------------------------- x2 -|
E|---------------------------------------------------------------------------|


Verse 2:
      (x8)     (x5)   (x8)     (x5)      (x8)     (x5)   (x8)     (x5)
e|---------------------------------------------------------------------------|
B|---------------------------------------------------------------------------|
G|-------------44444-----------44444---2-22222222-44444--22222222-44444------|
D|--2-22222222-44444--22222222-44444---2-22222222-44444--22222222-44444------|
A|--2-22222222-22222--22222222-22222---0-00000000-22222--00000000-22222- x2 -|
E|--0-00000000--------00000000-----------------------------------------------|
PM:   ........ .....  ........ .....     ........ .....  ........ .....

I heard it once, I'm sure I heard it twice
My dad used togive me all of his advice
He would say "you gotta turn your back and run now
Come on, son, you haven't got a chance now"


Intro Riff 1:
e|---------------------------------------------------------------------------|
B|---------------------------------------------------------------------------|
G|---------------------------------------------------------------------------|
D|-----6-6h7p6-------------6-6h7p6-----------6-6h7p6-------------6-6h7p6-9---|
A|-----------------9-5-----------------9-----------------9-7--------------0-9|
E|---0---------7-5-------0---------7-5-----0---------7-5-------0-------------|


Chorus (part1):
     (x8)      (x8)      (x8)      (x8)
e|---------------------------------------------------------------------------|
B|---------------------------------------------------------------------------|
G|-------------44444444------------44444444----------------------------------|
D|---22222222--44444444--77777777--44444444----------------------------------|
A|---22222222--22222222--77777777--22222222----------------------------------|
E|---00000000------------55555555--------------------------------------------|

She's a dove, she's a f**king nightmare
Unpredictable, it's my mistake to stay here


Chorus (part2):
     (x8)      (x8)      (x8)     
e|---------------------------------------------------------------------------|
B|---------------------------------------------------------------------------|
G|-------------44444444------------4---2-------------------------------------|
D|---22222222--44444444--77777777--4---2-------------------------------------|
A|---22222222--22222222--77777777--2---0-------------------------------------|
E|---00000000------------55555555--------------------------------------------|

On the go, it's way too late to play
I need a girl that I can train


Chorus (part1):
     (x8)      (x8)      (x8)      (x8)
e|---------------------------------------------------------------------------|
B|---------------------------------------------------------------------------|
G|-------------44444444------------44444444----------------------------------|
D|---22222222--44444444--77777777--44444444----------------------------------|
A|---22222222--22222222--77777777--22222222----------------------------------|
E|---00000000------------55555555--------------------------------------------|

She's a dove, she's a f**king nightmare
Unpredictable, it's my mistake to stay here


Chorus (part2):
     (x8)      (x8)      (x8)     
e|---------------------------------------------------------------------------|
B|---------------------------------------------------------------------------|
G|-------------44444444------------4---2-------------------------------------|
D|---22222222--44444444--77777777--4---2-------------------------------------|
A|---22222222--22222222--77777777--2---0-------------------------------------|
E|---00000000------------55555555--------------------------------------------|

On the go, it's way too late to play
I need a girl that I can train


Bridge/Interlude: (2x on the album version)
     (x8)     (x5)   (x8)     (x5)    (x8)     (x5)   (x8)     (x5)
e|---------------------------------------------------------------------------|
B|---------------------------------------------------------------------------|
G|------------44444-----------44444---22222222-44444--22222222-44444---------|
D|---22222222-44444--22222222-44444---22222222-44444--22222222-44444---------|
A|---22222222-22222--22222222-22222---00000000-22222--00000000-22222---- x2 -|
E|---00000000--------00000000------------------------------------------------|
PM:  ........ .....  ........ .....   ........ .....  ........ .....

Need a girl that I can train
Need a girl that I can train
Turn your back and run now
You haven't got a chance now


Outro: (this is played simultaneusly with the bridge on the album version
	  the second time it is played)
e|---4-0---0---2-0---0---4-0---0---5-0---0---2*------------------------------|
B|-------0---------0---------0---------0-------------------------------------|
G|---------------------------------------------------------------------------|
D|---------------------------------------------------------------------------|
A|---------------------------------------------------------------------- x4 -|
E|---------------------------------------------------------------------------|

Need a girl that I can train
Need a girl that I can train
Turn your back and run now
You haven't got a chance now

* = This tone is only struck on the 2nd and 4th time you play the Outro


Thats it!! It sounds great!
//Fps

===============================================================================
            

comments powered by Disqus
↑ Back to top | *Blink 182* Tabs for Dumpweed. Lyrics for acoustic guitar and electric guitar. Tablatures and chords are parodies/interpretations of the original songs. You may use it for private study, scholarship, research or language learning purposes only