» » »

*Blink 182*, Down Tabs (ver.4)

Artists:  A B C D E F G H I J K L M N O P Q R S T U V W X Y Z # 

Down Tabs (ver.4)

*Blink 182* Tabs
 Rating:
4/5 (4 votes)
Down lessons Tabs too difficult? Try these video lessons and learn fast
1
                All guitars tuned down 1 and 1/2 step

This song i believe is one of the easyest song
on the CD, This song has only ONE guitar in it
How kick ass is that?

Guitar 1 (as opposed to another one???)
Intro
E|--------------------------------------------|
B|--------------------------------------------|
G|-7-7-7-x-x-7-7-x-x-7-7-7-x-7-7-7-x-7-7-7----|
D|-x-x-x-x-x-x-x-x-x-x-x-x-x-x-x-x-x-x-x-x----|
A|-5-5-5-x-x-5-5-x-x-5-5-5-x-5-5-5-x-5-5-5----| 8x
E|--------------------------------------------|

This represents ONE BAR, so if you play it 4 times
thats a full cycle, so play 2 cycles
Verse
E|---------------------------------------------|
B|---------------------------------------------|
G|-7-7-7-7-7-7-7-7-7-7--4-4-4-6-6-6-6-6-6-6----|
D|-0-0-0-0-0-0-0-0-0-0--0-0-0-0-0-0-0-0-0-0----|
A|-5-5-5-5-5-5-5-5-5-5--2-2-2-4-4-4-4-4-4-4----| 4x
E|---------------------------------------------|

Guitar 1 (piano arranged for guitar)
Its just one chord, when he whispers, "you did this"
Filler 1
E|---|
B|---|
G|-0-|
D|---|
A|---| 
E|-3-|

Guitar 1
Pre-chours part 1
E|------------------------------------------------------|
B|------------------------------------------------------|
G|------------------------------------------------------|
D|--4-4-4--4-4--4-4-4--4----7-7-7-7-7---7-7-7-7-7-7-7---|
A|--2-2-2--2-2--2-2-2--2p0--4-4-4-4-4/5-5-5-5-5-5-5-5p0-| 
E|------------------------------------------------------|

Guitar 1
Pre-Chours part 2
E|-----------------------------------------------|
B|-----------------------------------------------|
G|-----------------------------------------------|
D|--2-2-2-2-0-2-4-4-4-4-4-4---7-7-7-7-7-7-7------|
A|--0-0-0-0-0-0-2-2-2-2-2-2p0-4-4-4-4-4-4-4------| 
E|-----------------------------------------------|

Guitar 1
Chours part 1
E|----------------------------------------------------------------|
B|----------------------------------------------------------------|
G|-14-14-14-14-14-14-12-12-12-12-11-11-11-11-11-12-12-12-12-12-12-|
D|--0--0--0--0--0--0--0--0--0--0--0--0--0--0--0--0--0--0--0--0--0-|
A|-12-12-12-12-12-12-10-10-10-10--9--9--9--9--9-10-10-10-10-10-10-| 2x
E|----------------------------------------------------------------|
Now repeat the intro then verse SHOW BELOW, NOT THE OTHER
ONE, the filler

Guitar 1
With fingers and i think a reverse gated reverb
Second Verse
E|---------------------------------|
B|---------------------------------|
G|-7-----4----6--------------------|
D|---------------------------------|
A|-5-----2----4--------------------| 
E|---------------------------------|
   *Let ring for a bar for the "7,5"

Now play the filler, then the pre-chours, then the chours
but play this riff in the backround until the song ends
Guitar 1
Filler 2
E|--------------10------------10-------|
B|------10-----------10-----------10---|
G|-7--------7-------------7------------|
D|-------------------------------------|
A|-------------------------------------| 
E|-------------------------------------|

and done
            
Submit corrections

comments powered by Disqus
↑ Back to top | *Blink 182* Tabs for Down. Lyrics for acoustic guitar and electric guitar. 1 Tablatures and chords are parodies/interpretations of the original songs. You may use it for private study, scholarship, research or language learning purposes only