» » »

Don't Tell Me It's Over Tabs (ver.5)

Artists:  A B C D E F G H I J K L M N O P Q R S T U V W X Y Z # 

Don't Tell Me It's Over Tabs (ver.5)

*Blink 182*
Rating:
0/5 (0 votes)

Hard to play? Try these video lessons and learn fast.
                


------------------------------------------------------------------------------
------------------------------------------------------------------------------
--5---------------------5-5--------------------5---------------5--------------
--5---------------------5-5--------------------5---------------5--------------
--3---------------------3-3--------------------3---------------3--------------
------------------------------------------------------------------------------
  I hear the phone. .   Can't leave my room. . I will admit. . Girls always   

------------------------------------------------------------------------------
------------------------------------------------------------------------------
--5---5---5---5---------------------------------------------------------------
--5---5---5---5----5-5-5-5---3-3-3-3------------------------------------------
--3---3---3---3----5-5-5-5---3-3-3-3------------------------------------------
-------------------3-3-3-3---1-1-1-1------------------------------------------
  Hold on..        Hold        On                                             

------------------------------------------------------------------------------
------------------------------------------------------------------------------
-5----5----5----5----5----5----5----------------------------------------------
-5----5----5----5----5----5----5----5---5---5---5---3---3---3---3-------------
-3----3----3----3----3----3----3----5---5---5---5---3---3---3---3-------------
------------------------------------3---3---3---3---1---1---1---1-------------
 Dont tell me that it's over, I'm not used to this temptation...              

------------------------------------------------------------------------------
------------------------------------------------------------------------------
------------------------------------------------------------------------------
---------2----0----2----0----2------------------------------------------------
----3-----------------------------3-------------------------------------------
------------------------------------------------------------------------------
    Riff- listen for timing                                                   

------------------------------------------------------------------------------
------------------------------------------------------------------------------
--5---5---5---5---5---5---5---5---5-------------------------------------------
--5---5---5---5---5---5---5---5---5----5---5---5---5---3---3---3---3----------
--3---3---3---3---3---3---3---3---3----5---5---5---5---3---3---3---3----------
---------------------------------------3---3---3---3---1---1---1---1----------
 verse- mostly palm muted, but listen for open chords and timing              

------------------------------------------------------------------------------
------------------------------------------------------------------------------
--5---5---5---5---5-----------------------------------------------------------
--5---5---5---5---5---5---5---5---7---7---3---3-------------------------------
--3---3---3---3---3---5---5---5---7---7---3---3-------------------------------
----------------------3---3---3---5---5---1---1-------------------------------
 muted chord riff- listen for timing and chord repititions                    
            
Hard to play? Try these video lessons and learn fast. | Correct




comments powered by Disqus
↑ Back to top | Tablatures and chords are parodies/interpretations of the original songs. You may use it for private study, scholarship, research or language learning purposes only